Oops, an error
Loading. Please wait.

Optimistic bass

version 3
version 3

Whole song

Interactive

1,312 views 3 this week
1 commentread comment
1 2 3 4 5
2 more votes to show rating
add to favorites
×
Save as Personal and add changes to this tab that will be seen only by you. Learn more ›
×
You can save this tab as Personal to edit and correct it or add notes. All changes will be seen only by you. Learn more »
launch autoscroll
font size
0
reset
guitar tuner
backing track
0:00
0:00
edit
Autoscroll
slow
fast
+/-
esc
set tempo
stop
Optimistic - Radiohead

  
G||----------------------------|----------------------------|
D||--0--0-0-0-----0--0-0-0-----|--0--0-0-0-----0--0-0-0-----|
A||------------3------------3--|------------3------------3--|
D||----------------------------|----------------------------|

----------------------------|----------------------------|
--0--0-0-0-----0--0-0-0-----|--0--0-0-0-----0--0-0-0-----|
------------3------------3--|------------3------------3--|
----------------------------|----------------------------|


----------------------------|----------------------------|
--0--0-0-0-----0--0-0-0-----|--0--0-0-0-----0--0-0-0-----|
------------3------------3--|------------3------------3--|
----------------------------|----------------------------|


----------------------------|----------------------------|
--0--0-0-0-----0--0-0-0-----|--0--0-0-0-----0--0-0-0-----|
------------3------------3--|------------3------------3--|
----------------------------|----------------------------|


----------------------------|----------------------------|
--0--0-0-0-----0--0-0-0-----|--0--0-0-0-----0--0-0-0-----|
------------3------------3--|------------3------------3--|
----------------------------|----------------------------|


----------------------------|----------------------------|
--0--0-0-0-----0--0-0-0-----|--0--0-0-0-----0--0-0-0-----|
------------3------------3--|------------3------------3--|
----------------------------|----------------------------|


----------------------------|----------------------------|
--0--0-0-0-----0--0-0-0-----|--0--0-0-0-----0--0-0-0-----|
------------3------------3--|------------3------------3--|
----------------------------|----------------------------|


----------------------------|----------------------------|
--0--0-0-0-----0--0-0-0-----|--0--0-0-0-----0--0-0-0-----|
------------3------------3--|------------3------------3--|
----------------------------|----------------------------|


----------------------------|----------------------------|
--0--0-0-0-----0--0-0-0-----|--0--0-0-0-----0--0-0-0-----|
------------3------------3--|------------3------------3--|
----------------------------|----------------------------|


----------------------------|----------------------------|
--0--0-0-0-----0--0-0-0-----|--0--0-0-0-----0--0-0-0-----|
------------3------------3--|------------3------------3--|
----------------------------|----------------------------|


----------------------------|----------------------------|
--0--0-0-0-----0--0-0-0-----|--0--0-0-0-----0--0-0-0-----|
------------3------------3--|------------3------------3--|
----------------------------|----------------------------|


--5--5--5--4-4--4-4--4----|--0------------------|----------------------------|
--------------------------|---------0--------0--|--0--0-0-0-----0--0-0-0-----|
--------------------------|---------------------|------------3------------3--|
--------------------------|---------------------|----------------------------|

 
----------------------------|--5--5--5--4-4--4-4--4----|--0------------------|
--0--0-0-0-----0--0-0-0-----|--------------------------|---------0--------0--|
------------3------------3--|--------------------------|---------------------|
----------------------------|--------------------------|---------------------|


----------------------------|----------------------------|
--0--0-0-0-----0--0-0-0-----|--0--0-0-0-----0--0-0-0-----|
------------3------------3--|------------3------------3--|
----------------------------|----------------------------|

 
----------------------------|----------------------------|
--0--0-0-0-----0--0-0-0-----|--0--0-0-0-----0--0-0-0-----|
------------3------------3--|------------3------------3--|
----------------------------|----------------------------|


----------------------------|----------------------------|
--0--0-0-0-----0--0-0-0-----|--0--0-0-0-----0--0-0-0-----|
------------3------------3--|------------3------------3--|
----------------------------|----------------------------|

 
----------------------------|----------------------------|
--0--0-0-0-----0--0-0-0-----|--0--0-0-0-----0--0-0-0-----|
------------3------------3--|------------3------------3--|
----------------------------|----------------------------|

 
----------------------------|----------------------------|
--0--0-0-0-----0--0-0-0-----|--0--0-0-0-----0--0-0-0-----|
------------3------------3--|------------3------------3--|
----------------------------|----------------------------|

 
----------------------------|----------------------------|
--0--0-0-0-----0--0-0-0-----|--0--0-0-0-----0--0-0-0-----|
------------3------------3--|------------3------------3--|
----------------------------|----------------------------|


----------------------------|----------------------------|
--0--0-0-0-----0--0-0-0-----|--0--0-0-0-----0--0-0-0-----|
------------3------------3--|------------3------------3--|
----------------------------|----------------------------|

 
--5--5--5--4-4--4-4--4----|--0------------------|----------------------------|
--------------------------|---------0--------0--|--0--0-0-0-----0--0-0-0-----|
--------------------------|---------------------|------------3------------3--|
--------------------------|---------------------|----------------------------|

 
----------------------------|--5--5--5--4-4--4-4--4----|--0------------------|
--0--0-0-0-----0--0-0-0-----|--------------------------|---------0--------0--|
------------3------------3--|--------------------------|---------------------|
----------------------------|--------------------------|---------------------|

 
----------------------------|----------------------------|
--0--0-0-0-----0--0-0-0-----|--0--0-0-0-----0--0-0-0-----|
------------3------------3--|------------3------------3--|
----------------------------|----------------------------|


--------------------------------|----0-0-0-0--0-0-0--------------|
--0-3-3-3-3--3-3---2-2-2-2--2-2-|--2----------------4-4-4-4--0-0-|
--------------------------------|--------------------------------|
--------------------------------|--------------------------------|


--------------------------------|----0-0-0-0--0-0-0--------------|
--0-3-3-3-3--3-3---2-2-2-2--2-2-|--2----------------4-4-4-4--0-0-|
--------------------------------|--------------------------------|
--------------------------------|--------------------------------|


--------------------------------|----0-0-0-0--0-0-0--------------|
--0-3-3-3-3--3-3---2-2-2-2--2-2-|--2----------------4-4-4-4--0-0-|
--------------------------------|--------------------------------|
--------------------------------|--------------------------------|


--------------------------------|----0-0-0-0--0-0-0--------------|
--0-3-3-3-3--3-3---2-2-2-2--2-2-|--2----------------4-4-4-4--0-0-|
--------------------------------|--------------------------------|
--------------------------------|--------------------------------|


----------------------------|----------------------------|
--0--0-0-0-----0--0-0-0-----|--0--0-0-0-----0--0-0-0-----|
------------3------------3--|------------3------------3--|
----------------------------|----------------------------|


----------------------------|----------------------------|
--0--0-0-0-----0--0-0-0-----|--0--0-0-0-----0--0-0-0-----|
------------3------------3--|------------3------------3--|
----------------------------|----------------------------|


----------------------------|----------------------------|
--0--0-0-0-----0--0-0-0-----|--0--0-0-0-----0--0-0-0-----|
------------3------------3--|------------3------------3--|
----------------------------|----------------------------|


----------------------------|----------------------------|
--0--0-0-0-----0--0-0-0-----|--0--0-0-0-----0--0-0-0-----|
------------3------------3--|------------3------------3--|
----------------------------|----------------------------|

 
--5--5--5--4-4--4-4--4----|--0------------------|----------------------------|
--------------------------|---------0--------0--|--0--0-0-0-----0--0-0-0-----|
--------------------------|---------------------|------------3------------3--|
--------------------------|---------------------|----------------------------|


----------------------------|--5--5--5--4-4--4-4--4----|--0------------------|
--0--0-0-0-----0--0-0-0-----|--------------------------|---------0--------0--|
------------3------------3--|--------------------------|---------------------|
----------------------------|--------------------------|---------------------|


----------------------------|----------------------------|
--0--0-0-0-----0--0-0-0-----|--0--0-0-0-----0--0-0-0-----|
------------3------------3--|------------3------------3--|
----------------------------|----------------------------|


----------------------------|----------------------------|
--0--0-0-0-----0--0-0-0-----|--0--0-0-0-----0--0-0-0-----|
------------3------------3--|------------3------------3--|
----------------------------|----------------------------|

 
----------------------------|----------------------------|
--0--0-0-0-----0--0-0-0-----|--0--0-0-0-----0--0-0-0-----|
------------3------------3--|------------3------------3--|
----------------------------|----------------------------|


--------------------------------|----0-0-0-0--0-0-0--------------|
--0-3-3-3-3--3-3---2-2-2-2--2-2-|--2----------------4-4-4-4--0-0-|
--------------------------------|--------------------------------|
--------------------------------|--------------------------------|


--------------------------------|----0-0-0-0--0-0-0--------------|
--0-3-3-3-3--3-3---2-2-2-2--2-2-|--2----------------4-4-4-4--0-0-|
--------------------------------|--------------------------------|
--------------------------------|--------------------------------|


--------------------------------|----0-0-0-0--0-0-0--------------|
--0-3-3-3-3--3-3---2-2-2-2--2-2-|--2----------------4-4-4-4--0-0-|
--------------------------------|--------------------------------|
--------------------------------|--------------------------------|


--------------------------------|----0-0-0-0--0-0-0-------7-5-----|
--0-3-3-3-3--3-3---2-2-2-2--2-2-|--2----------------4-4-4-----7-5-|
--------------------------------|---------------------------------|
--------------------------------|---------------------------------|


--------7---------5-7-------|--0----7------5----7----|-------------5-----------|
------------5-5-7-----5--0--|------------7-----------|---------5-7----7--5--0--|
--5--5----------------------|------------------------|-------------------------|
----------------------------|------------------------|--5----------------------|


-----------------5-7-5-------|-------7-----5-7-----5------|
--0--0-------5-7-------7-7-7-|-----------5-----5-7---7-0--|
-----------------------------|--5-------------------------|
--------0--------------------|----------------------------|


-------------------------|--------------------------|
--0----------------------|--------------------------|
------------3------------|------------------3-------|
-------0------5---3-0----|--5------0-3-5--5------0--|

             
--------------7-5---5-0------|-------7-----5-------------|-------------------|
------------------7------7-5-|-----------7---7---5----0--|--0----------------|
---------5-------------------|---------------------------|-------------------|
--0--0S----------------------|--5------------------------|-------------------|


-------------------||
-------------------||
-------------------||
-------------------||

            
            
Suggest correction
Creating personal tab
Creating personal tab
You can edit any tab online and save it as your Personal.

You can edit, replace or remove any tab part or add personal notes – all changes will be seen only by you.

Personal tabs can be accessed anytime from any device, even offline.
Learn more »
Give kudos to tab author, rate the tab!
1 2 3 4 5
comments
print report bad tab
1 comment total.
0 reply
primus182 160 Feb 02, 2016 01:33 PM

no, wrong in the verse

guest
You may want to rate the tab now too:
select rating
Wanna post a correction for this tab? Suggest correction