Oops, an error
Loading. Please wait.

The Daily Mail Tab

4,110 views 3 this week
no commentswrite comment
1 2 3 4 5
accurate
x 4
add to favorites
launch autoscroll
font size
0
reset
how to read this tab
guitar tuner
Autoscroll
slow
fast
+/-
esc
set tempo
stop
Help us to improve Ultimate-Guitar.com Take our survey!
×
Author
Difficulty
novice
Jonny and Ed's parts on this song is pretty simple. Both come in at 2:22 on the
single version, with Jonny cutting out at 3:05, and Ed playing until the end. This is my 
first tab, and I did it without a guitar, but I'm pretty sure it's all correct.

Jonny gets a middling amount of distortion out of his Boss OD3. He plays a Rickenbacker 
360 into his pedalboard (with the OD3 turned on), then into his 90's Vox AC30 6/TB.
Ed's guitar is completely clean(undistorted, though not completely free of effects); 
70's Gibson Les Paul Custom running into  a Fender Vibro King Custom, possibly with some 
reverb from a Boss RV3 or RV5.

Good luck!

_____________________________________________________________________________________

Jonny

Option A(on the recording): 2:22
E--------------------------------------------------------------------| x3
B--------------------------------------------------------------------|
G--------------------------------------------------------------------|
D------10-------10------10-------10------10------10------10--10--10--|
A-----------------------------------------------------8-8----8---8---|
E--8--------8-8-----8-------11-11----10------10----------------------|

Option B(live sometimes): 2:22
E--------------------------------------------------------------------| x3
B--------------------------------------------------------------------|
G--------------------------------------------------------------------|
D------10-------10------10-------10------10------10------10----------|
A-----------------------------------------------------8-8----8-10-8--|
E--8--------8-8-----8-------11-11----10------10----------------------|

For both, for the last time he cuts it short and plays this, then tacets for the rest of 
the song. (3:03-3:05)
E----------------------------------| x1
B----------------------------------|
G----------------------------------|
D------10------10------10------10--|
A----------------------------------|
E--8-------8-8-----888-----9-------|


_____________________________________________________________________________________

Ed

(Part A: 2:22)
E--------------------------------------------------------------------| x3
B--------------------------------------------------------------------|
G--------------------------------------------------------------------|
D------10-------10------10-------10------10------10------10--10--10--|
A--------------------------------------------------------------------|
E--8--------8-8-----8-------11-11----10------10------13------13--13--|


The last time he cuts it short. (3:03)
E----------------------------------| x1
B----------------------------------|
G----------------------------------|
D------10------10------10------10--|
A----------------------------------|
E--8-------8-8-----888-----9-------|


Then he plays this until the end. (Part B: 3:06)
E------------------------------------------------------------------------| x2
B------------------------------------------------------------------------|
G------------------------------------------------------------------------|
D------8--------8--------8--------8--------8--------8--------8--------8--|
A------------------------------------------------------------------------|
E--6--------6--------6--------9--------8--------8--------11-------11-----|


Then he finishes on this. (3:22)
E------| x1
B------|
G------|
D--10--|
A------|
E--8---|
Suggest correction
comments
print report bad tab
guest
You may want to rate the tab now too:
select rating
Wanna post a correction for this tab? Suggest correction