Oops, an error
Loading. Please wait.

The National Anthem Live tab

version 1
version 1

Whole song

Interactive

325 views 6 this week
no commentswrite comment
1 2 3 4 5
3 more votes to show rating
add to favorites
×
Save as Personal and add changes to this tab that will be seen only by you. Learn more ›
×
You can save this tab as Personal to edit and correct it or add notes. All changes will be seen only by you. Learn more »
launch autoscroll
font size
0
reset
how to read this tab
guitar tuner
edit
Autoscroll
slow
fast
+/-
esc
set tempo
stop
-----------------------------------------------------
The National Anthem (Live in London 2000) - Radiohead
-----------------------------------------------------

Tuning: DADGBe

Shoutout to Trifonas for figuring out the bass riff and the trumpet part:
https://tabs.ultimate-guitar.com/r/radiohead/national_anthem_ver2_tab.htm

So this tab is for the live version of the song from this video:
https://www.youtube.com/watch?v=COq98GatFC4

This is without-a-doubt my favourite version of the song and I love Thom's guitar sound in it. 
But because the video isn't in the best quality and the guitar is really distorted, it's difficult to 
figure out what Thom is playing there. So, thanks to Trifonas' trumpet tab, different live videos and 
a guess, I think I figured out how to play it. This tab includes the bass riff, Ed's guitar parts, and,
of course, Thom's guitar tab.

h=hammer-on
x=mute note
/=slide

Bass Riff:
e|-----------------------------------------------|
B|-----------------------------------------------|
G|-----------------------------------------------|
D|-----------------------------------------------|
A|-----------------------------------------------|
D|---h4-0-0--0-h4-0-0-0--0-h3-0-0--0-h2-0-0-0--0-|

Electric Guitar (Ed O'Brien): (0:44)
e|-------------------------------------------|
B|---17--/-15-/-10---3-/-13--/-11-/-6--/-5---|
G|-------------------------------------------|
D|-------------------------------------------|
A|-------------------------------------------|
D|-------------------------------------------|

e|----------------------------------------------------|
B|-17--/-19-/-15---13--/-15-/-10--/-8--/-7---8-/-10---|
G|----------------------------------------------------|
D|----------------------------------------------------|
A|----------------------------------------------------|
D|----------------------------------------------------|

e|---------------------------------------------------------------|
B|-15-/-17-/-19--/-11-/-17--/-10-/-15---13-/-15---13-/-11---10---|
G|---------------------------------------------------------------|
D|---------------------------------------------------------------|
A|---------------------------------------------------------------|
D|---------------------------------------------------------------|

e|-------------------------------------------|
B|---15---13-/-10---13-/-11---10--/-8--/-7---|
G|-------------------------------------------|
D|-------------------------------------------|
A|-------------------------------------------|
D|-------------------------------------------|

(1:53)
e|---14---10--/-13-/-15---17--/-14---10--/-18---15---|
B|---------------------------------------------------|
G|---------------------------------------------------|
D|---------------------------------------------------|
A|---------------------------------------------------|
D|---------------------------------------------------|

Electric Guitar (Thom Yorke):
e|---------------------------------|
B|---------------------------------|
G|---3--5-5-5--5-3/5-3/5-5--5-5----|
D|---x--x-x-x--x-x-x-x-x-x--x-x----|
A|---3--5-5-5--5-3/5-3/5-5--5-5----|
D|---0--0-0-0--0-0-0-0-0-0--0-0----|

If you think something's off anywhere, feel free to let me know.

            
            
Suggest correction
Creating personal tab
Creating personal tab
You can edit any tab online and save it as your Personal.

You can edit, replace or remove any tab part or add personal notes – all changes will be seen only by you.

Personal tabs can be accessed anytime from any device, even offline.
Learn more »
Give kudos to tab author, rate the tab!
1 2 3 4 5
comments
print report bad tab
guest
You may want to rate the tab now too:
select rating
Wanna post a correction for this tab? Suggest correction