Oops, an error
Loading. Please wait.

There There Tab

version 1
version 1
197,861 views 210 this week
8 commentsread comments
1 2 3 4 5
x 56
add to favorites
launch autoscroll
font size
0
reset
how to read this tab
guitar tuner
Autoscroll
slow
fast
+/-
esc
set tempo
stop
Help us to improve Ultimate-Guitar.com Take our survey!
×
There There (the bony king of nowhere)

heh!!!!
i've seen the othere tab for this song and it's not quite right
this is the full version of the song
enjoy
barney

[Intro]


bass arr. for guitar               heavy distortion
e|---------------------------------------|----------|
b|---------------------------------------|----------|
g|---------------------------------------|----------|
d|---------------------------------------|----------|
a|---------------------------------------|-2~-------|
E|-----------5-7--5-7--5-7--5-7--5-7-----|----------|


     e|-------------0-2---------------2-0-----0-2---------|
     b|-------0---------0-------0---------0---------0-----|
     g|---2-2---2-----------2---------------2---------2---|
     d|-0---------0---------------0-------------------0---|
     a|-2---------2-------2---2-----2-------------2-----2-|
     E|---------------------------------------------------|


e|-------2-0-2-------------0-2----------------------|
b|-0---------0-------0-----------0------------------|
g|---2-----------2-----2----------------------------|
d|-----0-------0---------2--------------------------|
a|-----2-------2---2-----0-----2--------------------|
E|--------------------------------------------------|

vocals enter

e|-----------------0---2----------------------------|
b|-------------------------0---0--------------------|
g|---2-------2-------2---2-2---2--------------------|
d|-0---0-------0-----0---0--------------------------|
a|-2-----2-------2---2---2---2----------------------|
E|--------------------------------------------------|


e|-----2-2-0----------------------------------------|
b|-0---0-0-0-------------------------0-0-0----------|
g|-2-----------2---4-----4-----2-----0-0-0----------|
d|-------------0---5-----5-----0-----2-2-0----------|
a|---2---2---2-----5-5-5-5-5-------2---2-0----------|
E|---------------3---0-0---0-2---2-0---0------------|


e|-----------------------------------------|
b|--------------------------0-0-0----------|
g|--------4-----4-----2-----0-0-0----------|
d|--------5-----5-----0-----2-2-0----------|
a|--------5-5-5-5-5-------2---2-0----------|
E|------3---0-0---0-2---2-0---0------------|


e|---2---2-------------3---2-0----------------------|
b|-0-0---0---0---0-----0---0-0-------0--------------|
g|-2-2---2---2---2-2---2---2-2---0---0----0-----2---|
d|-0---------0-0-0-0-0-0-0-----0-0--------0-0---0-0-|
a|-2---2-----2-2---2-2-2-2-----2-0----------0-----0-|
E|---------------------------------3---0------2-----|


e|--------------------------------------------------|
b|--------------------------------------------------|
g|-----------4-----4---2-2--------------------------|
d|---2-2-0---5-----5-0-0-0-0-2-2-2/5----------------|
a|-2-2-2-0---5-5-5-5-0-----0-2-2-2/5----------------|
E|-0-0-0---3---0-0---0-2-----0-0-0/5----------------|


[Chorus]

e|---------------------------------------------------|
b|-0-0-0-0-0-0-----2-2-2---3-3-2---------------------|
g|-6-6-6-6-6-6-0-0-2-2-2---2-2-2---0---4---4-2-2-0---|
d|-7-7-7-7-7-7-0-0-0-0-0---0-0-0-0-0---5---5-0-0-0-2-|
a|-7-7-7-7-7-7-0-0-----------------0-5-5-5-5-----0-2-|
E|-5-5-5-5-5-5-----2-2---2-----2-2---3---0---2-----0-|


e|--------------------------------------------------|
b|--------------------------------------------------|
g|-------0---4-----4-4-2-2-0-2-0---0-0--------------|
d|-2/4-4-0---5-----5-5-0-0-0-2-2-2/4-0--------------|
a|-------0-5-5-5-5-5-5-----0-0-------0--------------|
E|---------3---0-0-----2----------------------------|


e|---------------------------------------------------|
b|-0-0-0-0-0-0-----2-2-2---3-3-2---------------------|
g|-6-6-6-6-6-6-0-0-2-2-2---2-2-2---0---4---4-2-2-0---|
d|-7-7-7-7-7-7-0-0-0-0-0---0-0-0-0-0---5---5-0-0-0-2-|
a|-7-7-7-7-7-7-0-0-----------------0-5-5-5-5-----0-2-|
E|-5-5-5-5-5-5-----2-2---2-----2-2---3---0---2-----0-|


e|--------------------------------------------------|
b|--------------------------------------------------|
g|-------0---4-----4-4-2-2-0-2-0---0-0--------------|
d|-2/4-4-0---5-----5-5-0-0-0-2-2-2/4-0--------------|
a|-------0-5-5-5-5-5-5-----0-0-------0--------------|
E|---------3---0-0-----2----------------------------|


e|----------|----------------------------------------|
b|---0------|----------------------------------------|
g|---2------|----------------------------------------|
d|---0-0----|----------------------------------------|
a|-2-2---2~-|----------------------------------------|
E|----------|----------------------------------------|


e|-----------------0---2----------------------------|
b|-------------------------0---0--------------------|
g|---2-------2-------2---2-2---2--------------------|
d|-0---0-------0-----0---0--------------------------|
a|-2-----2-------2---2---2---2----------------------|
E|--------------------------------------------------|


e|-----2-2-0----------------------------------------|
b|-0---0-0-0-------------------------0-0-0----------|
g|-2-----------2---4-----4-----2-----0-0-0----------|
d|-------------0---5-----5-----0-----2-2-0----------|
a|---2---2---2-----5-5-5-5-5-------2---2-0----------|
E|---------------3---0-0---0-2---2-0---0------------|


e|-----------------------------------------|
b|--------------------------0-0-0----------|
g|--------4-----4-----2-----0-0-0----------|
d|--------5-----5-----0-----2-2-0----------|
a|--------5-5-5-5-5-------2---2-0----------|
E|------3---0-0---0-2---2-0---0------------|


e|---2---2-------------3---2-0----------------------|
b|-0-0---0---0---0-----0---0-0-------0--------------|
g|-2-2---2---2---2-2---2---2-2---0---0----0-----2---|
d|-0---------0-0-0-0-0-0-0-----0-0--------0-0---0-0-|
a|-2---2-----2-2---2-2-2-2-----2-0----------0-----0-|
E|---------------------------------3---0------2-----|


e|--------------------------------------------------|
b|--------------------------------------------------|
g|-----------4-----4---2-2--------------------------|
d|---2-2-0---5-----5-0-0-0-0-2-2-2/5----------------|
a|-2-2-2-0---5-5-5-5-0-----0-2-2-2/5----------------|
E|-0-0-0---3---0-0---0-2-----0-0-0/5----------------|


[Chorus]

e|---------------------------------------------------|
b|-0-0-0-0-0-0-----2-2-2---3-3-2---------------------|
g|-6-6-6-6-6-6-0-0-2-2-2---2-2-2---0---4---4-2-2-0---|
d|-7-7-7-7-7-7-0-0-0-0-0---0-0-0-0-0---5---5-0-0-0-2-|
a|-7-7-7-7-7-7-0-0-----------------0-5-5-5-5-----0-2-|
E|-5-5-5-5-5-5-----2-2---2-----2-2---3---0---2-----0-|


e|--------------------------------------------------|
b|--------------------------------------------------|
g|-------0---4-----4-4-2-2-0-2-0---0-0--------------|
d|-2/4-4-0---5-----5-5-0-0-0-2-2-2/4-0--------------|
a|-------0-5-5-5-5-5-5-----0-0-------0--------------|
E|---------3---0-0-----2----------------------------|


e|---------------------------------------------------|
b|-0-0-0-0-0-0-----2-2-2---3-3-2---------------------|
g|-6-6-6-6-6-6-0-0-2-2-2---2-2-2---0---4---4-2-2-0---|
d|-7-7-7-7-7-7-0-0-0-0-0---0-0-0-0-0---5---5-0-0-0-2-|
a|-7-7-7-7-7-7-0-0-----------------0-5-5-5-5-----0-2-|
E|-5-5-5-5-5-5-----2-2---2-----2-2---3---0---2-----0-|


e|--------------------------------------------------|
b|--------------------------------------------------|
g|-------0---4-----4-4-2-2-0-2-0---0-0--------------|
d|-2/4-4-0---5-----5-5-0-0-0-2-2-2/4-0--------------|
a|-------0-5-5-5-5-5-5-----0-0-------0--------------|
E|---------3---0-0-----2----------------------------|


[Bridge]

e|---------------------------------------------------|
b|---------------------------------------------------|
g|---------------------------------------------------|
d|----7-----7-----7---7-9--7-----7---7------10----10-|
a|--9-9-9-9-9---9-9-9-9-11-9-9-9-9-9-9-9-12-12-12-12-|
E|--7---7-7-----7---7--------7-7---7---7-10----10----|
    feel it

        e|-----------------------------------------------|
        b|-------------------------------0-0-0-0-0-------|
        g|-------------------------------0-0-0-0-0-------|
        d|-------10----10-12-12-10-5---2-2-2-2-2-2/4-----|
        a|-12-12-12-12-12-14-14-12-7---2-2---------------|
        E|-10-10----10-------------5-0-0-0---------------|


         e|----------------------|
         b|----0-0-0-0-0-0-------|
         g|----0-0-0-0-0-0-------|
         d|----2-2-2-2-2-2/4-----|
         a|----2-2---------------|
         E|--0-0-0-----------0---|


         e|-----7-------7-------7-------7-------5-------5---|
         b|---------------------------------------6-------5-|
         g|---7---7---7---7---7---7---7---7-----------------|
         d|-----------------------------------7-------7-----|
         a|---------------------------------5-------5-------|
         E|-7-------7-------7-------7-----------------------|


         e|-----7-------7---7------7-------7-------7---------|
         b|-----------------0--------0-------0---------0-----|
         g|-------5------------------------------------------|
         d|---7-------7---7------------------------------0---|
         a|-0-------0------------7-------7-------7---7-------|
         E|--------------------0-------0-------0-------------|


         e|-----7-------7-------7-------7-------5-------5---|
         b|---------------------------------------6-------5-|
         g|---7---7---7---7---7---7---7---7-----------------|
         d|-----------------------------------7-------7-----|
         a|---------------------------------5-------5-------|
         E|-7-------7-------7-------7-----------------------|


         e|-----7-------7---7------7-------7-------7---------|
         b|-----------------0--------0-------0---------------|
         g|-------5------------------------------------------|
         d|---7-------7---7----------------------------------|
         a|-0-------0------------7-------7-------7-----------|
         E|--------------------0-------0-------0-----5-5-5---|


         e|-----7---------7---------7-----------------------|
         b|-------------------------------------------------|
         g|---7---7-----7---7-----7---7---------------------|
         d|-------------------------------------------------|
         a|---------------------------------7-7-7-7-7-6-5-5-|
         E|-7-------5h7-------5h7-------5h7-----------------|


         e|---7---------------------------7-------------------|
         b|-----6---------------------------5-----------------|
         g|-5---5---5-----------------------5-----------------|
         d|-7---7---5-----------------7-----------------------|
         a|-5-----5---7-7-7-7-6-5-3-0---0-----7-6-5-4-3-0-0-0-|
         E|---------------------------------------------------|


         e|-----------------------------------------------|
         b|-10--10b-10b-10-8--8b-8b-------10---8----------|
         g|-12b-----------10b-------------12b-10b-12b-10b-|
         d|-----------------------------------------------|
         a|-----------------------------------------------|
         E|-------------------------0-0-0-----------------|


         e|-----7---------7---------7-----------------------|
         b|-------------------------------------------------|
         g|---7---7-----7---7-----7---7---------------------|
         d|-------------------------------------------------|
         a|---------------------------------7-7-7-7-7-6-5-5-|
         E|-7-------5h7-------5h7-------5h7-----------------|


         e|---7---------------------------7-------------------|
         b|-----6---------------------------5-----------------|
         g|-5---5---5-----------------------5-----------------|
         d|-7---7---5-----------------7-----------------------|
         a|-5-----5---7-7-7-7-6-5-3-0---0-----7-6-5-4-3-0-0-0-|
         E|---------------------------------------------------|


         e|-----------------------------------------------|
         b|-10--10b-10b-10-8--8b-8b-------10---8----------|
         g|-12b-----------10b-------------12b-10b-12b-10b-|
         d|-----------------------------------------------|
         a|-----------------------------------------------|
         E|-------------------------0-0-0-----------------|


         e|-----7---------7---------7-----------------------|
         b|-------------------------------------------------|
         g|---7---7-----7---7-----7---7---------------------|
         d|-------------------------------------------------|
         a|---------------------------------7-7-7-7-7-6-5-5-|
         E|-7-------5h7-------5h7-------5h7-----------------|


         e|---7---------------------------7-------------------|
         b|-----6---------------------------5-----------------|
         g|-5---5---5-----------------------5-----------------|
         d|-7---7---5-----------------7-----------------------|
         a|-5-----5---7-7-7-7-6-5-3-0---0-----7-6-5-4-3-0-0-0-|
         E|---------------------------------------------------|


         e|-----7-------7---------7--------------------------|
         b|-------0-------0-----0----------------------------|
         g|--------------------------------------------------|
         d|----------------------------7--7--7--7--9--11--12-|
         a|---7-------7-------7------------------------------|
         E|-0-------0-------0-------0------------------------|



************************************

| h  Hammer-on
| b  Bend
| /  Slide up
| ~  Vibrato

************************************
Suggest correction
comments
print report bad tab
8 comments total. Showing first comments.
+1 reply
DrkSydeOTM 40 Jul 11, 2003 12:00 AM

Awesome tab, dude.

+1 reply
furry monkey 130 Oct 19, 2003 12:00 AM

i'm the guy who tabbed this song but i registered after i tabbed it!!!!!!

0 reply
There There 10 Jul 26, 2006 02:06 PM

good tab but could you put the lyrics along side the corresponing tab, i cant quite make sence of whats what...

guest
You may want to rate the tab now too:
select rating
Wanna post a correction for this tab? Suggest correction