Oops, an error
Loading. Please wait.

There There Chords

version 3
version 3

Whole song

187 views 27 this week
no commentswrite comment
1 2 3 4 5
3 more votes to show rating
add to favorites
launch autoscroll
font size
0
reset
transpose
0
reset
simplify chords
display chords
guitar tuner
Autoscroll
slow
fast
+/-
esc
set tempo
stop
Help us to improve Ultimate-Guitar.com Take our survey!
×
Author
Difficulty
intermediate
About this tab version
All transition chords, all song parts. Was this info helpful? Yes No
Radiohead - There There

[Note]
this version is made as a means to play this song fully on one guitar (and sing to it);
not necessarily how radiohead plays it and i took the original song as template, not a live/acoustic version


[Chords]
-- Intro  --
Bm7       x20202
Bm7/A     x00202
Bm7/F#    2x0202

-- Verse / Chorus --
Gmaj7     320002 or G6        320000
Bm7/F#    2x0202 or Gmaj7/F#  2x0200
Emadd9    022002 or Em
Dmaj9/F#  2x0220
Dsus2/F#  2x0230
Bm9       2x2220

-- Bridge --
Bm7       x24232
Bm7add6   x26232
Dm7       x57565
Dm7add6   x59565
Am7       575555
Am7add6   595555
Emadd2    024000

-- Outro --
Bm        7x0707
Dm6       x50767
Bm11/A    5x0757
D6sus2/E  070707


[Intro] 
(only played by bass; can be left out)
Bm7/A Bm7    Bm7/A Bm7    Bm7/A Bm7    Bm7/A Bm7    Bm7 Bm7/F# Bm7/A
Bm7    Bm7/A Bm7    Bm7/A Bm7    Bm7/A Bm7    Bm7 Bm7/F# Bm7/A
Bm7    Bm7/A Bm7    Bm7/A Bm7    Bm7/A Bm7    Bm7 Bm7/F# Bm7/A


[Verse 1]
Bm7                                     Gmaj7  Bm7/F# Emadd9  Gmaj7  Bm7/F# Emadd9
 In pitch dark i go walking in your landscape
Bm7                          Gmaj7  Bm7/F# Emadd9  Gmaj7  Bm7/F# Emadd9
 Broken branches trip me as i speak.


[Chorus]
A                 Dmaj9/F#  Dsus2/F# Dmaj9/F#    Gmaj7  Bm7/F# Emadd9  Gmaj7  Bm7/F# Emadd9
 just because you feel it   doesnt   mean it's there
A                 Dmaj9/F#  Dsus2/F# Dmaj9/F#    Gmaj7  Bm7/F# Emadd9  Gmaj7  Bm7/F# Emadd9
 just because you feel it   doesnt   mean it's there

Bm7 Bm9


[Verse 2]
Bm7                                    Gmaj7  Bm7/F# Emadd9  Gmaj7  Bm7/F# Emadd9
 There's always a siren singing you to shipwreck
Bm7                                              Gmaj7  Bm7/F# Emadd9  Gmaj7  Bm7/F# Emadd9
 Steer away from these rocks we'd be a walking disaster.


[Chorus]
A                 Dmaj9/F#  Dsus2/F# Dmaj9/F#    Gmaj7  Bm7/F# Emadd9  Gmaj7  Bm7/F# Emadd9
 just because you feel it   doesnt   mean it's there
A                 Dmaj9/F#  Dsus2/F# Dmaj9/F#    Gmaj7  Bm7/F# Emadd9  Gmaj7  Bm7/F# Emadd9
 just because you feel it   doesnt   mean it's there


[Bridge]
      Bm7  Bm7add6
there there

Bm7  Bm7add6
Dm7  Dm7add6
Am7  Am7add6
Em   Emadd2 Em  Emadd2 Em7


[Outro]
strum chords or use picking patterns

    Bm                                      Bm/D
E|---------7---------------7----------|  |---------7---------------7----------|
B|-------------0---------------0------|  |-------------6---------------6------|
G|-----7---------------7--------------|  |-----7---------------7--------------|
D|------------------------------------|  |------------------------------------|
A|------------------------------------|  |-5-----5---5---0-5-----5---5---0-5--|
E|-7-----7---7---5-7-----7---7---5-7--|  |------------------------------------|

    Bm7/A                                   D6sus2/E
E|---------7---------------7----------|  |---------7---------------7----------|
B|-------------5---------------5------|  |-------------0---------------0------|
G|-----7---------------7--------------|  |-----7---------------7--------------|
D|------------------------------------|  |------------------------------------|
A|-0-----0---0---0-0-----0---0---0-0--|  |------------------------------------|
E|------------------------------------|  |-0-----0---0---0-0-----0---0---0-0--|


Bm               Dm6     Bm11/A     D6sus2/E
Why so green and lonely, lonely, lonely?
Bm              Dm6    Bm11/A  D6sus2/E
Heaven sent you to me, to me, to me

Bm    Dm6  Bm11/A  D6sus2/E

Bm               Dm6      Bm11/A     D6sus2/E
We are accidents waiting, waiting to happen
Bm               Dm6         Bm11/A      D6sus2/E
we are accidents waiting and waiting to happen

Bm7    Bm7/A Bm7    Bm7/A Bm7    Bm7/A Bm7    Bm7 Bm7/F# Bm7/A
Bm7    Bm7/A Bm7    Bm7/A Bm7    Bm7/A Bm7    Bm7 Bm7/F# Bm7/A
Suggest correction
Give kudos to tab author, rate the tab!
1 2 3 4 5
comments
print report bad tab
guest
You may want to rate the tab now too:
select rating
Wanna post a correction for this tab? Suggest correction