Oops, an error
Loading. Please wait.

There There Tab

version 3
version 3
36,089 views 30 this week
2 commentsread comments
1 2 3 4 5
accurate
x 6
add to favorites
launch autoscroll
font size
0
reset
how to read this tab
guitar tuner
Autoscroll
slow
fast
+/-
esc
set tempo
stop
Help us to improve Ultimate-Guitar.com Take our survey!
×
?There There? (studio version)
Radiohead
from ?Hail to the Theif?
tabbed by shun   24/03/04

key:
/ - slide up
\ - slide down
b - bend note
p - pull off

drop D tuning

e----------0-2---------3--2--0-------------------
B------0-------0---------------------------------
G----2---2-----------2----------4------2----0----
D---0---------------0-----------0------0----0----
A-2---------------2-------------x------x----x----
D-------------------------------5------3----2----
in pitch dark.... 


chorus:
e-----------------------------------------------------------
B-----------------------------------------------------------
G-6----------6-------7-------6-------------4------2----0----
D-7----------x-------x-------x-------------0------0----0----
A-x----------4-------5-------4-------------x------x----x----
D-7----------4-------4-------4-------------5------3----2----
just cos you feel it doesn't mean it's there

outro main chords:
e-----------------------------------------------------
B-----------------------------------------------------
G-----------------------------------------------------
D--9-7-----7--9---7--9---7--9--7--9-------------------
A--9-7-----7--9---7--9---7--9--7--9-------------------
D--9---9-9----9------9------------9-------------------

e-------------------------------------------------
B-------------------------------------------------
G-------------------------------------------------
D--12--10-------10-12--10-12--10-12-10-12---------
A--12--10-------10-12--10-12--10-12-10-12---------
D--12-----12-12----12---- 12-----------12---------

e-------------------------------------0----------
B-------------------------------------0----------
G-------------------------------------0----------
D-----7------7------------------------2----------
A--7--7--7-7-7-7--7--9-9-9-7----------x----------
D--7-----7-7---7--7--7-7-7-7----------2----------
Suggest correction
comments
print report bad tab
2 comments total.
+2 reply
zebumeat 10 wrote on February 6 2007, 10:02 pm

This is actually the most correct tab for this song. Only a few changes need to be made...
I believe the guitar is tuned DBDGBe. Because of that you play the main verse part x00202, not x20202. Also you must play the bridge like this:
e---------------------------------------------------------
B---------------------------------------------------------
G---------------------------------------------------------
D-----7--7---7---7---7------------10---10--10---10-------5
B-----7--7---7---9---7------------10---10--10---12-------5 etc..
D----9--9---9---9---9----------12----12---12--12-------7--

OK I got too lazy to type the rest, but the 2x200 part is the same, except you slide it to 4x400 and back every once in awhile. That is all.

Don't be fooled by the other versions, this is the exact right way, even watch it on YouTube!! http://www.youtube.com/watch?v=_4BaNNtbvlw

0 reply
darou 10 wrote on June 17 2007, 03:50 pm

I'm still not sure of the second and third chord of the chorus... grr.... it's something like 47x6xx 48x7xx and then back to 5x04xx, 4x02xx, 2x000x, 2x200x... but not too sure.
about that little bit, it's really 2x000x and then 2x200x, its clear in the videos.
Also, the bridge is very similar to what zebumeat just put on then but doesn't seem to me like it's exactly that. It "should" be (although doesn't seem to make much sense fingerwise 977xxx and moving to 999xxx but it's kind of awkward to do it that way... and same thing at 121010xxx and 755xxx. bah... hard to say. still working on it

also, check out http://www.youtube.com/watch?v=JSCvSMZUHiI&mode=related&search= for another video

guest
You may want to rate the tab now too:
select rating
Please do not post tabs as comments. Select "correction" instead!