Oops, an error
Loading. Please wait.

Tinker Tailor Soldier Sailor Rich Man Poor Man Beggar Man Thief tab

version 1
version 1

Whole song

Interactive

3,029 views 9 this week
no commentswrite comment
1 2 3 4 5
x 5
add to favorites
×
Save as Personal and add changes to this tab that will be seen only by you. Learn more ›
×
You can save this tab as Personal to edit and correct it or add notes. All changes will be seen only by you. Learn more »
launch autoscroll
font size
0
reset
how to read this tab
guitar tuner
edit
Autoscroll
slow
fast
+/-
esc
set tempo
stop
Author
[Intro]

e|-------------------------------------------|
B|-------------------------------------------|
G|---1-----1--------1--------0--1-----3------|
D|---2-----2--3-----2--3-----1--2-----4--3---|
A|------------4--------4-----------------4---|
E|-------------------------------------------|

e|-------------------------------------------|
B|-------------------------------------------|
G|---1--------0--1--------1--3--------1--3---|
D|---2--3-----1--2--1-----2--4--------2--4---|
A|------4-----------2------------------------|
E|-------------------------------------------|

e|----------------------------------|
B|----------------------------------|
G|---------1--------0--1-----3------|
D|---3-----2--3-----1--2-----4--3---|
A|---4--------4-----------------4---|
E|----------------------------------|


[Verse 1]

     E  C#    D# E     F# C#
e|----------------------------|
B|----------------------------|
G|---1--------0--1-----3------|
D|---2--3-----1--2-----4--3---| x3
A|------4-----------------4---|
E|----------------------------|

              E C#         D# E       F#    C#
All the holes ---- at once ---- are coming alive, set free
E C#        D# E         F#  C#
     Out of sight and out of mind, and lonely
E C#     D#    E      F#  C#
     And their prey


e|---------------|
B|---------------|
G|---0--1--------|
D|---1--2----1---|
A|-----------2---|
E|---------------|


[Chorus 1]

     E  F#    E  F#      C# D#    E  B
e|-------------------|-------------------|
B|-------------------|-------------------|
G|---1--3-----1--3---|------0-----1------|
D|---2--4-----2--4---|---3--1-----2--1---| x2
A|-------------------|---4-----------2---|
E|-------------------|-------------------|

    E        F#         E        F#         C#  D#    E   B 
The ones you light your fires to keep away
E        F#   E     F#       C#  D#    E   B
Crawling out upon expending


     E   F#    E   F#      
e|---------------------|
B|---------------------|
G|---1---3-----1---3---|
D|---2---4-----2---4---|
A|---------------------|
E|---------------------|

    E       F#      E     F#   
And all you have to do is say


[Bridge]

Guitar 1:
     C#
e|----------------------------------|
B|----------------------------------|
G|---------1--------0--1-----3------|
D|---3-----2--3-----1--2-----4--3---|
A|---4--------4-----------------4---|
E|----------------------------------|

C#
    Yeah

Guitar 2: electric fill
e|---21--19-----------------------------------------------------------|
B|-----------21--19--21--19-------------------------------------------|
G|---------------------------21--18--18--16---------------------------|
D|-------------------------------------------18--16--18--16-----------|
A|-----------------------------------------------------------19--16---|
E|--------------------------------------------------------------------|


e|-------------------------------------|
B|-------------------------------------|
G|---1--------0--1--------1--3---------|
D|---2--3-----1--2--1-----2--4-----3---|
A|------4-----------2--------------4---|
E|-------------------------------------|


[Verse 2]

     E  C#    D# E     F# C#
e|----------------------------|
B|----------------------------|
G|---1--------0--1-----3------|
D|---2--3-----1--2-----4--3---| x3
A|------4-----------------4---|
E|----------------------------|

              E C#         D# E     F# C#
All the birds ---- stay up ---- in the trees
             E C#           D# E  F# C#
All the fish ---- swim down ---- too deep, and lonely
E C#     D#    E      F#  C#
     And their prey


     E  C#   D#  E  B     E  C#       E  C#
e|-------------------------------------------|
B|-------------------------------------------|
G|---1--------0--1--------1--3--------1--3---|
D|---2--3-----1--2--1-----2--4--------2--4---|
A|------4-----------2------------------------|
E|-------------------------------------------|

           E C#            D# E B               E  C#   E  C#
Honey came ---- come to me ---- before it's too late


e|-------------------|
B|-------------------|
G|------0-----1------|
D|---3--1-----2--1---|
A|---4-----------2---|
E|-------------------|


[Chorus 2]

     E  F#    E  F#      C# D#    E  B
e|-------------------|-------------------|
B|-------------------|-------------------|
G|---1--3-----1--3---|------0-----1------|
D|---2--4-----2--4---|---3--1-----2--1---| x2
A|-------------------|---4-----------2---|
E|-------------------|-------------------|

    E       F#         E        F#         C#  D#    E   B 
The one you watch your fires to keep away
   E        F#   E     F#       C#  D#    E   B
Is crawling out upon expelling


     E   F#    E   F#    C#  
e|---------------------------|
B|---------------------------|
G|---1---3-----1---3---------|
D|---2---4-----2---4-----3---|
A|-----------------------4---|
E|---------------------------|

E       F#      E     F#   C#
All you have to do is say, yeah



            
            
Suggest correction
Creating personal tab
Creating personal tab
You can edit any tab online and save it as your Personal.

You can edit, replace or remove any tab part or add personal notes – all changes will be seen only by you.

Personal tabs can be accessed anytime from any device, even offline.
Learn more »
comments
print report bad tab
guest
You may want to rate the tab now too:
select rating
Wanna post a correction for this tab? Suggest correction