Oops, an error
Loading. Please wait.
We have Chord Pro version of True Love Waits.
It's the closest thing you can get to the original song and it has interactive parts. Check out the tab »
×

True Love Waits tab

version 2
version 2

Whole song

  • This version is from the 2016 album, A Moon Shaped... Show more
  • This is a transcription of the new album version, ... Show more

Interactive

Video

2,401 views 30 this week
no commentswrite comment
1 2 3 4 5
x 7
add to favorites
×
Save as Personal and add changes to this tab that will be seen only by you. Learn more ›
×
You can save this tab as Personal to edit and correct it or add notes. All changes will be seen only by you. Learn more »
launch autoscroll
font size
0
reset
how to read this tab
guitar tuner
edit
Autoscroll
slow
fast
+/-
esc
set tempo
stop
Author
About this tab version
This version is from the 2016 album, A Moon Shaped Pool. Previous versions are based on very different live performances. Was this info helpful? Yes No
2016 version from A Moon Shaped Pool


[Intro]

   Cmaj7                         
e|--------------------------|    
B|--------------------------|    
G|---------4--------------4-|    
D|----5-----------5---------|x2  
A|-3----3-----3-------3-----|    
E|--------------------------|    


[Verse 1]

   Cmaj7                                                                                       C
e|--------------------------|--------------------------|--------------------------|--------------------------|
B|--------------------------|--------------------------|--------------------------|--------------------------|
G|---------4--------------4-|---------4--------------4-|---------4--------------4-|---------4--------------5-|
D|----5-----------5---------|----5-----------5---------|----5-----------5---------|----5-----------5---------|
A|-3----3-----3-------3-----|-3----3-----3-------3-----|-3----3-----3-------3-----|-3----3-----3-------3-----|
E|--------------------------|--------------------------|--------------------------|--------------------------|
                      I'll    drown      my       beliefs

   Am7                                                   G#maj7
e|--------------------------|--------------------------|--------------------------|--------------------------|
B|--------------------------|--------------------------|--------------------------|--------------------------|
G|---------5--------------5-|---------5--------------5-|---------5--------------5-|---------5--------------5-|
D|----5-----------5---------|----5-----------5---------|----5-----------5---------|----5-----------5---------|
A|------3-------------3-----|--------------------------|------3-------------3-----|------3-------------3-----|
E|-5----------5-------------|-5----5-----5-------5-----|-4----------4-------------|-4----------4-------------|
                           To have your ba-         -bies

   Cmaj7                                                                        
e|--------------------------|--------------------------|--------------------------|--------------------------|
B|--------------------------|--------------------------|--------------------------|--------------------------|
G|---------4--------------4-|---------4--------------4-|---------4--------------4-|---------4--------------4-|
D|----5-----------5---------|----5-----------5---------|----5-----------5---------|----5-----------5---------|
A|-3----3-----3-------3-----|-3----3-----3-------3-----|-3----3-----3-------3-----|-3----3-----3-------3-----|
E|--------------------------|--------------------------|--------------------------|--------------------------|
                      I'll    dress      like   your niece

   Am7                                                   G#maj7
e|--------------------------|--------------------------|--------------------------|--------------------------|
B|--------------------------|--------------------------|--------------------------|--------------------------|
G|---------5--------------5-|---------5--------------5-|---------5--------------5-|---------5----------------|
D|----5-----------5---------|----5-----------5---------|----5-----------5---------|----5-----------5---------|
A|------3-------------3-----|--------------------------|------3-------------3-----|------3-------------------|
E|-5----------5-------------|-5----5-----5-------5-----|-4----------4-------------|-4----------4-------------|
                          And wash your swollen      feet


[Chorus 1] 

   Cmaj7      C                          Csus4           C                                     G/B
e|--------------------------|--------------------------|--------------------------|--------------------------|
B|--------------------------|--------------------------|--------------------------|--------------------------|
G|---------4--------------5-|---------5----------5-----|---------5----------5-----|---------5--------------4-|
D|----5-----------5---------|----5-----------3-------3-|--------------------------|----------------5---------|
A|-3----3-----3-------3-----|-3----3-----3-------------|-3----3-----3----------3--|-3----3-----2-------2-----|
E|--------------------------|--------------------------|--------------------------|--------------------------|
   Just                                  don't           leave,                                don’t

   Am7                                                   C/G
e|--------------------------|--------------------------|--------------------------|--------------------------|
B|--------------------------|--------------------------|--------------------------|--------------------------|
G|---------5--------------5-|---------5--------------5-|---------5--------------5-|---------5--------------5-|
D|----5-----------5---------|----5-----------5---------|----5-----------5---------|----5-----------5---------|
A|------3-------------3-----|------3-------------3-----|------3-------------3-----|------3-------------3-----|
E|-5----------5-------------|-5----------5-------------|-3----------3-------------|-3----------3-------------|
   leave


[Verse 2]

   Cmaj7                                                                             
e|--------------------------|--------------------------|--------------------------|--------------------------|
B|--------------------------|--------------------------|--------------------------|--------------------------|
G|---------4--------------4-|---------4--------------4-|---------4--------------4-|---------4--------------5-|
D|----5-----------5---------|----5-----------5---------|----5-----------5---------|----5-----------5---------|
A|-3----3-----3-------3-----|-3----3-----3-------3-----|-3----3-----3-------3-----|-3----3-----3-------3-----|
E|--------------------------|--------------------------|--------------------------|--------------------------|
                      I'm     not        living

   Am7                                                   G#maj7
e|--------------------------|--------------------------|--------------------------|--------------------------|
B|--------------------------|--------------------------|--------------------------|--------------------------|
G|---------5--------------5-|---------5--------------5-|---------5--------------5-|---------5--------------5-|
D|----5-----------5---------|----5-----------5---------|----5-----------5---------|----5-----------5---------|
A|------3-------------3-----|--------------------------|------3-------------3-----|------3-------------3-----|
E|-5----------5-------------|-5----5-----5-------5-----|-4----------4-------------|-4----------4-------------|
                              I'm just killing        time

   Cmaj7                                                                        
e|--------------------------|--------------------------|--------------------------|--------------------------|
B|--------------------------|--------------------------|--------------------------|--------------------------|
G|---------4--------------4-|---------4--------------4-|---------4--------------4-|---------4--------------4-|
D|----5-----------5---------|----5-----------5---------|----5-----------5---------|----5-----------5---------|
A|-3----3-----3-------3-----|-3----3-----3-------3-----|-3----3-----3-------3-----|-3----3-----3-------3-----|
E|--------------------------|--------------------------|--------------------------|--------------------------|
                      Your    tiny                   hands

   Am7                                                   G#maj7
e|--------------------------|--------------------------|--------------------------|--------------------------|
B|--------------------------|--------------------------|--------------------------|--------------------------|
G|---------5--------------5-|---------5--------------5-|---------5--------------5-|---------5----------------|
D|----5-----------5---------|----5-----------5---------|----5-----------5---------|----5-----------5---------|
A|------3-------------3-----|--------------------------|------3-------------3-----|------3-------------------|
E|-5----------5-------------|-5----5-----5-------5-----|-4----------4-------------|-4----------4-------------|
                          Your crazy kitten          smile


[Chorus 2] 

   Cmaj7      C                          Csus4           C                                     G/B
e|--------------------------|--------------------------|--------------------------|--------------------------|
B|--------------------------|--------------------------|--------------------------|--------------------------|
G|---------4--------------5-|---------5----------5-----|---------5----------5-----|---------5--------------4-|
D|----5-----------5---------|----5-----------3-------3-|--------------------------|----------------5---------|
A|-3----3-----3-------3-----|-3----3-----3-------------|-3----3-----3----------3--|-3----3-----2-------2-----|
E|--------------------------|--------------------------|--------------------------|--------------------------|
   Just                                  don't           leave,                                don’t

   Am7                                                   C/G                        G#maj7     Fsus2
e|--------------------------|--------------------------|--------------------------|--------------------------|
B|--------------------------|--------------------------|--------------------------|---------1--------------1-|
G|---------5--------------5-|---------5--------------5-|---------5--------------5-|----0-----------0---------|
D|----5-----------5---------|----5-----------5---------|----5-----------5---------|--------------------------|
A|------3-------------3-----|------3-------------3-----|------3-------------3-----|------3-------------3-----|
E|-5----------5-------------|-5----------5-------------|-3----------3-------------|-4----------1-------------|
   leave


[Verse 3]

   Cmaj7                                                                          
e|--------------------------|--------------------------|--------------------------|--------------------------|
B|--------------------------|--------------------------|--------------------------|--------------------------|
G|---------4--------------4-|---------4--------------4-|---------4--------------4-|---------4--------------4-|
D|----5-----------5---------|----5-----------5---------|----5-----------5---------|----5-----------5---------|
A|-3----3-----3-------3-----|-3----3-----3-------3-----|-3----3-----3-------3-----|-3----3-----3-------3-----|
E|--------------------------|--------------------------|--------------------------|--------------------------|
                      And     true       love        waits

   Am7                                                   G#maj7
e|--------------------------|--------------------------|--------------------------|--------------------------|
B|--------------------------|--------------------------|--------------------------|--------------------------|
G|---------5--------------5-|---------5--------------5-|---------5--------------5-|---------5--------------5-|
D|----5-----------5---------|----5-----------5---------|----5-----------5---------|----5-----------5---------|
A|------3-------------3-----|--------------------------|------3-------------3-----|------3-------------3-----|
E|-5----------5-------------|-5----5-----5-------5-----|-4----------4-------------|-4----------4-------------|
                              In haunted           attics

   Cmaj7                                                                                       C
e|--------------------------|--------------------------|--------------------------|--------------------------|
B|--------------------------|--------------------------|--------------------------|--------------------------|
G|---------4--------------4-|---------4--------------4-|---------4--------------4-|---------4--------------5-|
D|----5-----------5---------|----5-----------5---------|----5-----------5---------|----5-----------5---------|
A|-3----3-----3-------3-----|-3----3-----3-------3-----|-3----3-----3-------3-----|-3----3-----3-------3-----|
E|--------------------------|--------------------------|--------------------------|--------------------------|
                      And     true       love        lives

   Am7                                                   G#maj7
e|--------------------------|--------------------------|--------------------------|--------------------------|
B|--------------------------|--------------------------|--------------------------|--------------------------|
G|---------5--------------5-|---------5--------------5-|---------5--------------5-|---------5----------------|
D|----5-----------5---------|----5-----------5---------|----5-----------5---------|----5-----------5---------|
A|------3-------------3-----|--------------------------|------3-------------3-----|------3-------------------|
E|-5----------5-------------|-5----5-----5-------5-----|-4----------4-------------|-4----------4-------------|
                              On lollipops and       crisps
     

[Chorus 3] 

   Cmaj7      C                          Csus4           C                                     G/B
e|--------------------------|--------------------------|--------------------------|--------------------------|
B|--------------------------|--------------------------|--------------------------|--------------------------|
G|---------4--------------5-|---------5----------5-----|---------5----------5-----|---------5--------------4-|
D|----5-----------5---------|----5-----------3-------3-|--------------------------|----------------5---------|
A|-3----3-----3-------3-----|-3----3-----3-------------|-3----3-----3----------3--|-3----3-----2-------2-----|
E|--------------------------|--------------------------|--------------------------|--------------------------|
   Just                                  don't           leave,                                don’t

   Am7                                                   C/G
e|--------------------------|--------------------------|--------------------------|--------------------------|
B|--------------------------|--------------------------|--------------------------|--------------------------|
G|---------5--------------5-|---------5--------------5-|---------5--------------5-|---------5--------------4-|
D|----5-----------5---------|----5-----------5---------|----5-----------5---------|----5-----------5---------|
A|------3-------------3-----|------3-------------3-----|------3-------------3-----|------3-------------3-----|
E|-5----------5-------------|-5----------5-------------|-3----------3-------------|-3----------3-------------|
   leave

   Cmaj7                 
e|--------------------------|
B|--------------------------|
G|---------4----------------|
D|----5---------------------|
A|-3----3-------------------|
E|--------------------------|


            
            
Suggest correction
Creating personal tab
Creating personal tab
You can edit any tab online and save it as your Personal.

You can edit, replace or remove any tab part or add personal notes – all changes will be seen only by you.

Personal tabs can be accessed anytime from any device, even offline.
Learn more »
comments
print report bad tab
guest
You may want to rate the tab now too:
select rating
Wanna post a correction for this tab? Suggest correction