Oops, an error
Loading. Please wait.
We have Chord Pro version of True Love Waits.
It's the closest thing you can get to the original song and it has interactive parts. Check out the tab »
×

True Love Waits chords

version 3
version 3

Whole song

Interactive

Video

20,515 views 219 this week
2 commentsread comments
1 2 3 4 5
x 19
add to favorites
×
Save as Personal and add changes to this tab that will be seen only by you. Learn more ›
×
You can save this tab as Personal to edit and correct it or add notes. All changes will be seen only by you. Learn more »
launch autoscroll
font size
0
reset
transpose
0
reset
simplify chords
display chords
guitar tuner
edit
Autoscroll
slow
fast
+/-
esc
set tempo
stop
Author
About this tab version
This is the version from the 2016 album Moon Shaped Pool. Previous versions are based on much earlier recordings of the same song.
Strumming
There is no strumming pattern for this song yet. and get +5 IQ
- 2016 version from the album “A Moon Shaped Pool”
- Chords shown below. Finger picking pattern shown at bottom. 


Verse              Chorus
--------------     -------------
Cmaj7   x3200x     C      x3201x 
Am7     x0201x     Csus4  x3301x   
G#maj7  4355xx     G/B    x2x00x
                   Am7    x0201x
                   C/G    33201x
                
[Intro]

Cmaj7


[Verse 1]

Cmaj7
     I'll drown my beliefs
Am7                   G#maj7
     To have your babies
Cmaj7
     I'll dress like your niece
Am7                          G#maj7
     And wash your swollen feet


[Chorus 1] 

C    Csus4 C
Just don't leave
G/B   Am7   
Don't leave
C/G


[Verse 2]

Cmaj7
     I'm not living
Am7                     G#maj7
     I'm just killing time
Cmaj7
     Your tiny hands
Am7                       G#maj7
     Your crazy kitten smile


[Chorus 2] 

C    Csus4 C
Just don't leave
G/B   Am7   
Don't leave
C/G


[Verse 3]

Cmaj7
    And true love waits
Am7                G#maj7
    In haunted attics
Cmaj7
    And true love lives
Am7                      G#maj7
    On lollipops and crisps


[Chorus 3] 

C    Csus4 C
Just don't leave
G/B   Am7   
Don't leave
C/G   Cmaj7


Finger Picking: 

Verse
   Cmaj7                      Am7                        G#maj7                         
e|--------------------------|--------------------------|--------------------------|
B|--------------------------|--------------------------|--------------------------|
G|---------4--------------4-|---------5--------------5-|---------5--------------5-|
D|----5-----------5---------|----5-----------5---------|----5-----------5---------|
A|-3----3-----3-------3-----|------3-------------3-----|------3-------------3-----|
E|--------------------------|-5----------5-------------|-4----------4-------------|

Chorus
    C               Csus4           G/B             Am7             C/G
e|---------------|---------------|---------------|---------------|----------------|
B|---------------|---------------|---------------|---------------|----------------|
G|------------5--|------------5--|------------4--|------------5--|------------5---|
D|-----5---------|-----3---------|-----5---------|-----5---------|-----5----------|
A|--3-----3------|--3-----3------|--2-----2------|--------3------|--------3-------|
E|---------------|---------------|---------------|--5------------|--3-------------|


Suggest correction
Creating personal tab
Creating personal tab
You can edit any tab online and save it as your Personal.

You can edit, replace or remove any tab part or add personal notes – all changes will be seen only by you.

Personal tabs can be accessed anytime from any device, even offline.
Learn more »
comments
print report bad tab
2 comments total.
+1 reply
RnRrefugee23 10 May 10, 2016 02:43 PM

I love this song, thanks so much.

+1 reply
t.delgado.abell 110 Jul 04, 2016 04:10 AM

best version. Thank you

guest
You may want to rate the tab now too:
select rating
Wanna post a correction for this tab? Suggest correction