Oops, an error
Loading. Please wait.
We have Chord Pro version of True Love Waits.
It's the closest thing you can get to the original song and it has interactive parts. Check out the tab »
×

True Love Waits Acoustic chords

version 4
version 4

Whole song

Interactive

Video

13,126 views 168 this week
no commentswrite comment
1 2 3 4 5
x 41
add to favorites
×
Save as Personal and add changes to this tab that will be seen only by you. Learn more ›
×
You can save this tab as Personal to edit and correct it or add notes. All changes will be seen only by you. Learn more »
launch autoscroll
font size
0
reset
transpose
0
reset
simplify chords
display chords
guitar tuner
edit
Autoscroll
slow
fast
+/-
esc
set tempo
stop
Author
Strumming
There is no strumming pattern for this song yet. and get +5 IQ
                   Intro + Verse 1                                           Chorus 1

    C             C/B           Am         Abadd9   C             F         C/B     Am            Gsus    
e|--0---0-0-0-----0---0-0-0-----0---0-0-0-----6--|--0---0-0-0---------------0-0-----0---0-0-0-----3---3-3-3--|
B|--0h1-1-1-1-----0h1-1-1-1-----0h1-1-1-1-----4--|--0h1-1-1-1-----0h1-1-----1-1-----0h1-1-1-1-----0h1-1-1-1--|
G|--0---0-0-0-----0---0-0-0-----2---2-2-2-----5--|--0---0-0-0-----2---2-----0-0-----2---2-2-2-----0---0-0-0--|
D|--2---2-2-2-----2---2-2-2-----2---2-2-2-----6--|--2---2-2-2-----3---3-----2-2-----2---2-2-2-----0---0-0-0--|
A|--3---3-3-3-----2---2-2-2-----0---0-0-0-----x--|--3---3-3-3-----3---3-----2-2-----0---0-0-0-----x---x-x-x--|
E|--------------------------------------------4--|----------------1---1---------------------------3---3-3-3--|

                    Verse 2 + 3                                            Chorus 2 + 3

    C             C/B           Am         Abadd9   C             F         C/B     Am            Gsus    
e|--0---3-1-0-----0---3-1-0-----0---3-1-0-----6--|--0---3-1-0---------------0-0-----0---3-1-0-----3---3-1-0--|
B|--0h1-1-1-1-----0h1-1-1-1-----0h1-1-1-1-----4--|--0h1-1-1-1-----0h1-1-----1-1-----0h1-1-1-1-----0h1-1-1-1--|
G|--0---0-0-0-----0---0-0-0-----2---2-2-2-----5--|--0---0-0-0-----2---2-----0-0-----2---2-2-2-----0---0-0-0--|
D|--2---2-2-2-----2---2-2-2-----2---2-2-2-----6--|--2---2-2-2-----3---3-----2-2-----2---2-2-2-----0---0-0-0--|
A|--3---3-3-3-----2---2-2-2-----0---0-0-0-----x--|--3---3-3-3-----3---3-----2-2-----0---0-0-0-----x---x-x-x--|
E|--------------------------------------------4--|----------------1---1---------------------------3---3-3-3--|

                    Interlude

    C             C/B           Am            Gsus       Abadd9   Fadd9
e|--0---3-1-0-----0---3-1-0-----0---3-1-0-----3---3-3-----6-6-----3-3-3-3---|
B|--0h1-1-1-1-----0h1-1-1-1-----0h1-1-1-1-----0h1-1-1-----4-4-----1-1-1-1---|
G|--0---0-0-0-----0---0-0-0-----2---2-2-2-----0---0-0-----5-5-----2-2-2-2---|
D|--2---2-2-2-----2---2-2-2-----2---2-2-2-----0---0-0-----6-6-----3-3-3-3---|
A|--3---3-3-3-----2---2-2-2-----0---0-0-0-----x---x-x-----x-x-----x-x-x-x---|
E|--------------------------------------------3---3-3-----4-4-----1-1-1-1---|


[Intro]
 
C     C    C/B     C/B
Am    Am   Abadd9  Abadd9


[Verse 1]

C       C           C/B   C/B
   I'll drown my beliefs
Am    Am           Abadd9   Abadd9
   To have your babies
C       C                C/B   C/B
   I'll dress like your niece
Am     Am                 Abadd9   Abadd9
   And wash your swollen feet


[Chorus 1] 

 C  F C/B    C
Just  don't leave
F C/B    Am    Am
  Don't leave
Gsus   Gsus


[Verse 2]

C      C      C/B   C/B
   I'm not living
Am     Am            Abadd9   Abadd9
   I'm just killing time
C       C     C/B    C/B
   Your tiny hands
Am      Am            Abadd9   Abadd9
   Your crazy kitten smile


[Chorus 2] 

 C  F C/B    C
Just  don't leave
F C/B    Am    Am
  Don't leave
Gsus   Gsus


[Interlude]

C     C    C/B    C/B
Am    Am   Gsus   Abadd9  Fadd9


[Verse 3]

C      C          C/B   C/B
   And true love waits
Am    Am         Abadd9   Abadd9
   In haunted attics
C      C          C/B   C/B
   And true love lives
Am    Am              Abadd9   Abadd9
   On lollipops and crisps


[Chorus 3] 

 C  F C/B    C
Just  don't leave
F C/B    Am    Am
  Don't leave
Gsus   Gsus

 C  F C/B    C
Just  don't leave
F C/B    Am    Am
  Don't leave
Gsus   Gsus   C

Suggest correction
Creating personal tab
Creating personal tab
You can edit any tab online and save it as your Personal.

You can edit, replace or remove any tab part or add personal notes – all changes will be seen only by you.

Personal tabs can be accessed anytime from any device, even offline.
Learn more »
comments
print report bad tab
guest
You may want to rate the tab now too:
select rating
Wanna post a correction for this tab? Suggest correction