Oops, an error
Loading. Please wait.

Up On The Ladder Bass Tab

58 views 6 this week
no commentswrite comment
1 2 3 4 5
2 more votes to show rating
add to favorites
launch autoscroll
font size
0
reset
guitar tuner
Autoscroll
slow
fast
+/-
esc
set tempo
stop
Help us to improve Ultimate-Guitar.com Take our survey!
×
Author
Difficulty
novice
-------------------------------------------------------------------------------
                          UP ON THE LADDER - Radiohead
-------------------------------------------------------------------------------

Tabbed by - jammyjamesm
E-mail - jammyjamesm@outlook.com

Tuning - Standard


This song has a flowing nature to it, and this comes from the slides, which 
makes them *super* important. I've tabbed the most important slides, there may 
be more to find.


Intro - 0:34-0:44

G|--------|---------|
D|3/5-----|/5/8\3~~~|
A|----3~~~|---------|
E|--------|---------| x2


Verse 1 - 0:45-1:37

G|---------|----------|--------|---------|
D|/5\------|/5/8\3~~/3|1/3-----|/5/8\3~~~|
A|---1-3~~~|----------|----3~~~|---------|
E|---------|----------|--------|---------|

G|--------|---------|---------|---------|
D|3/5-----|/5/8\3~~~|3--------|/5/8\3~~~|
A|----3~~~|---------|---1-3~~~|---------|
E|--------|---------|---------|---------| x2

G|--------|---------|
D|3/5-----|/5/8\3~~~|
A|----3~~~|---------|
E|--------|---------| x2

G|--------|---------|---------|---------|
D|3/5-----|/5/8\3~~~|3--------|/5/8\3~~~|
A|----3~~~|---------|---1-3~~~|---------|
E|--------|---------|---------|---------|


Chorus 1 - 1:37-1:55

G|----------------|----------------|----------------|5---5--5--5-5-5-5-5-|
D|6---6---6---6---|5---5---5---5---|3---3---3---3---|--------------------|
A|----------------|----------------|----------------|--------------------|
E|----------------|----------------|----------------|--------------------|

G|----------------|----------------|----------------|
D|3---3---3---3---|5---5---5---5---|6---6---6---6---|
A|----------------|----------------|----------------|
E|----------------|----------------|----------------|



Rest during verse 2


Chorus 2 - 2:59-3:40

G|----------------|----------------|----------------|5---5--5-5--5-5-5-5-5-|
D|6---6---6-6---6-|8---8---8---8-8-|3---3---3---3-5-|----------------------|
A|----------------|----------------|----------------|----------------------|
E|----------------|----------------|----------------|----------------------| x3

G|----------------|----------------|----------------|5---5--5-5--5-5-5-5-5-|
D|6---6---6-6-6-6-|8---8---8---8-8-|3---3---3---3-5-|----------------------|
A|----------------|----------------|----------------|----------------------|
E|----------------|----------------|----------------|----------------------|


Outro - 3:40

G|---------|------5-5-5-5-5-|
D|/5/8\3~~~|3/5-------------|
A|---------|----3-----------|
E|---------|----------------| x4 


| /  slide up
| \  slide down
| ~  vibrato
===============================================================================
Suggest correction
Give kudos to tab author, rate the tab!
1 2 3 4 5
comments
print report bad tab
guest
You may want to rate the tab now too:
select rating
Wanna post a correction for this tab? Suggest correction