Oops, an error
Loading. Please wait.

Vegetable bass

version 1
version 1

Whole song

Interactive

965 views 1 this week
no commentswrite comment
1 2 3 4 5
3 more votes to show rating
add to favorites
×
Save as Personal and add changes to this tab that will be seen only by you. Learn more ›
×
You can save this tab as Personal to edit and correct it or add notes. All changes will be seen only by you. Learn more »
launch autoscroll
font size
0
reset
guitar tuner
edit
Autoscroll
slow
fast
+/-
esc
set tempo
stop
Author
-------------------------------------------------------------------------------
			    Vegetable - Radiohead
-------------------------------------------------------------------------------

 Tabbed By : dvanwyk
 e-mail: dustinvanwyk@yahoo.com

 Tuning:Standard
 Intro
G|-------------------------------------------------------|
D|-------------------------------------------------------|
A|-----1--1-------2~----------1--1----4-2~---------------|
E|2--2------42-4---------2--2------42--------------------|

 Verse "I nerver wanted anything but this"
G|---------------------------------------------------------|
D|---------------------------------------------------------|
A|-----1--1----4-2~--22-1-----------1--1----4-2~-----------|
E|2--2------42------------2----2--2------42-------00-2-4---|

G|---------------------------------------------------------|
D|---------------------------------------------------------|
A|-----1--1----4-2~--22-1-4---------1--1----4-2~--2222-----|
E|2--2------42-----------------2--2------42----------------|

 Pre-Chorus "Everytime you're running over me"                               (0.44)
G|-------------------------------------------------|-------------------------------|
D|------------------------------------4--2---------|-------------------------------|
A|-------------------------------4-2-------4--2----|-------------------------------|
E|44444444-77777777-22222222-2-4-------------------|44444444-77777777--------------|


 Chorus
G|---------------------------------------------------------|
D|---------------------------------------------------------|
A|-----1--1----4-2~--222-4---------1--1----4-2~------------|
E|2--2------42----------------2--2------42-----------------|

 Verse "I never wanted any broken bones"
G|---------------------------------------------------------|
D|---------------------------------------------------------|
A|-----1--1----4-2~--222-4----------1--1----4-2~-----------|
E|2--2------42-----------------2--2------42-------00-2-4---|

G|--------------------------------------------------------------|
D|--------------------------------------------------------------|
A|-----1--1----4-2~--4/6-44-2----------1--1----4-2~-2222--------|
E|2--2------42--------------------2--2------42------------------|

 Pre-Chorus "Everytime you're running out on me"                             (1.33)
G|-------------------------------------------------|-------------------------------|
D|------------------------------------4--2---------|-------------------------------|
A|-------------------------------4-2-------4--2----|-------------------------------|
E|44444444-77777777-22222222-2-4-------------------|44444444-77777777--------------|

 Chorus "I'm not a vegetable"
G|-----------------------------------------------------------------|
D|-----------------------------------------------------------------|
A|-----1--1----4-2~--222-4----------1--1----4-2~--4/6-44-2---------|
E|2--2------42-----------------2--2------42------------------------|

G|-----------------------------------------------------------------|
D|-------------------4/6-4-----------------------------------------|
A|-----1--1----4-2~--------6----------1--1----4-2~--2222-----------|
E|2--2------42-------------------2--2------42----------------------|

 Bridge "The waters break, the waters run all over me"
G|----8---------6---------4~--2/44-4-2----|----8---------6---------------------------------|
D|------8~--------6--------------------4--|------8---------6-------------------------------|
A|----------------------------------------|--------------------222-444-666-888-------------|
E|6---------4---------2-------------------|6---------4-------------------------------------|
 
 Solo
G|--------------------------------------------------------------|
D|--------------------------------------------------------------|
A|-----1--1----4-2~--222-4----------1--1----4-2~----------------|
E|2--2------42-----------------2--2------42-------00-2-4--------|

G|--------------------------------------------------------------|
D|--------------------------------------------------------------|
A|-----1--1----4-2~--66-4-2----------1--1----4-2~---------------|
E|2--2------42------------------2--2------42--------------------|

 
 Chorus "I'm not a vegetable"
G|--------------------------------------------------------------|
D|-------------------------------------------------4/6-4--------|
A|-----1--1----4-2~--66-4-2----------1--1----4-2~--------6-4----|
E|2--2------42------------------2--2------42--------------------|

G|--------------------------------------------------------------|
D|-----------------------4--------------------------------------|
A|-----1--1----4-2~--4h6---6-4----------1--1----4-2~------------|
E|2--2------42---------------------2--2------42-----------------|

 Any comments please email me.
Suggest correction
Creating personal tab
Creating personal tab
You can edit any tab online and save it as your Personal.

You can edit, replace or remove any tab part or add personal notes – all changes will be seen only by you.

Personal tabs can be accessed anytime from any device, even offline.
Learn more »
Give kudos to tab author, rate the tab!
1 2 3 4 5
comments
print report bad tab
guest
You may want to rate the tab now too:
select rating
Wanna post a correction for this tab? Suggest correction