Oops, an error
Loading. Please wait.

Weird Fishes Arpeggi ukulele

version 2
version 2

Whole song

  • Ukulele tab. No capo, standard tuning.

Interactive

379 views 1 this week
2 commentsread comments
1 2 3 4 5
3 more votes to show rating
add to favorites
×
Save as Personal and add changes to this tab that will be seen only by you. Learn more ›
×
You can save this tab as Personal to edit and correct it or add notes. All changes will be seen only by you. Learn more »
launch autoscroll
font size
0
reset
transpose
0
reset
simplify chords
display chords
guitar tuner
edit
Autoscroll
slow
fast
+/-
esc
set tempo
stop
Author
Difficulty
About this tab version
Ukulele tab. No capo, standard tuning. Was this info helpful? Yes No
Strumming Is this strumming pattern correct? Yes No
120 bpm
1
&
2
&
3
&
Listen
Radiohead - Weird Fishes/Arpeggi
Ukulele Tab
No capo, standard tuning


Riff:

|-------------------------------------------------------------------------------------------------|
|-----4-----4-----4-----4-----4-----4-----4-----4-----6-----6-----6-----6-----6-----6-----6-----6-|
|---3-----3-----3-----3-----3-----3-----3-----3-----5-----5-----5-----5-----5-----5-----5-----5---|
|-5-----5-----5-----5-----5-----5-----5-----5-----7-----7-----7-----7-----7------7-----7----7-----|

|-------------------------------------------------------------------------------------------------|
|-----9-----9-----9-----9-----9-----9-----9-----9-----7-----7-----7-----7-----7-----7-----7-----7-|
|---9-----9-----9-----9-----9-----9-----9-----9-----7-----7-----7-----7-----7-----7-----7-----7---|
|-12----12----12----12----12----12----12----12-----9-----9-----9-----9-----9-----9-----9-----9----|



[Chords]

Em7:   -0475-
F#m:   -2124-
A:     -2104-
A7:    -0100-
A6:    -2424-
Gmaj7: -0222-
Bm:    -4222-
C:     -0003-



[Intro]

Em7    F#m    A  A7 A6 Gmaj7


[Part 1]

Em7
In the deepest ocean
    F#m
The bottom of the sea
     A  A7 A6
Your eyes
     Gmaj7
They turn me

Em7
Why should I stay here?
F#m                 A  A7 A6 Gmaj7
Why should I stay?

       Em7
I'd be crazy not to follow
F#m
Follow where you lead
     A  A7 A6
Your eyes
     Gmaj7
They turn me

Em7
Turn me on to phantoms
  F#m                         A  A7 A6
I follow to the edge of the earth
    Gmaj7
And fall off

Em7
Everybody leaves
F#m
If they get the chance
    A  A7 A6
And this 
   Gmaj7
is my chance


[Part 2]

      A6
I get eaten by the worms
      Gmaj7
Weird fishes
       A6
Picked over by the worms
      Gmaj7
Weird fishes
      A6
Weird fishes
      Gmaj7
Weird fishes


[Part 3]

Bm  C  Bm  A6  Gmaj7

Bm           C
I'll hit the bottom
        Bm           A6
Hit the bottom and escape
  Gmaj7
Escape

Bm           C
I'll hit the bottom
        Bm           A6
Hit the bottom and escape
  Gmaj7  Bm
Escape


            
            
Suggest correction
Creating personal tab
Creating personal tab
You can edit any tab online and save it as your Personal.

You can edit, replace or remove any tab part or add personal notes – all changes will be seen only by you.

Personal tabs can be accessed anytime from any device, even offline.
Learn more »
Give kudos to tab author, rate the tab!
1 2 3 4 5
comments
print report bad tab
2 comments total.
+1 reply
ABlackWelly 107 Aug 23, 2017 01:45 PM

Has the proper riff all tabbed for ukulele, thanks man!

0 reply
andreaskymarchetti.facebook 10 Sep 06, 2017 07:55 AM

nice chords! thanks! loving them

I suggest to edit the arpeggio at the beginning when it's like 9 9 12 to three different chords instead: the first to be 9 9 12, the second 9 9 10 and the last 9 9 9.

guest
You may want to rate the tab now too:
select rating
Wanna post a correction for this tab? Suggest correction