Oops, an error
Loading. Please wait.

Iceland Call Tab

31 views 6 this week
no commentswrite comment
1 2 3 4 5
3 more votes to show rating
add to favorites
launch autoscroll
font size
0
reset
how to read this tab
guitar tuner
Autoscroll
slow
fast
+/-
esc
set tempo
stop
Help us to improve Ultimate-Guitar.com Take our survey!
×
Difficulty
intermediate
About this tab version
As close as I can get it, not entirely sure if the lyrics is 100% might be one mistake but its close to 99%. Was this info helpful? Yes No
[Intro]

Huh!  Huh!
                  Huh!                   Huh!
  It´s the Iceland Call. It´s the Iceland Call.

[Intro]

E|-----12--12--10------10--------------------------------------------------|
B|-10--------------13-----13-12--10----------------------------------------|
G|-------------------------------------------------------------------------|
D|-------------------------------------------------------------------------|
A|-------------------------------------------------------------------------|
E|-------------------------------------------------------------------------|


[Pre-Verse]

E|-------------------------------------------------------------------------|
B|-10—-10-10--12--13-12-10(10)-12--13-12-10--12-10-----10--10--------------|
G|-------------------------------------------------12----------------------|
D|-------------------------------------------------------------------------|
A|-------------------------------------------------------------------------|
E|-------------------------------------------------------------------------|

E|------------------------------12--12-10-----10----------------------|
B|-10--10-10--12--13-12-10(10)------------13-----13-12-10-------------|
G|--------------------------------------------------------------------|
D|--------------------------------------------------------------------|
A|--------------------------------------------------------------------|
E|--------------------------------------------------------------------|

[Verse]

       Am                     C
In the middle of a land, in a cold and stormy sea,                    
       F               G            Am
we´re born between the fire and the ice.
       Am                              C 
Where frosty winds are blowing, all the world can see                         
     F             G            Am
the brave fighting northern men arise.


[Pre-Chorus]
Dm                                     Am 
You may think we´re hero’s, we´re just ordinary men.
         Dm              F     Esus4        E
With the burning in our hearts, here we are again.


[Bridge]

Huh!
E|-------------------------------------------------|
B|-10—-12--13-12-10--12-10-----10--10--------------|
G|-------------------------12----------------------|
D|-------------------------------------------------|
A|-------------------------------------------------|
E|-------------------------------------------------|
Huh!
E|-----12--12-10-----10----------------------|
B|-10------------13-----13-12-10-10----------|
G|-------------------------------------------|
D|-------------------------------------------|
A|-------------------------------------------|
E|-------------------------------------------|

[Chorus]
         Am                      G       F
It´s the Iceland Call. (It´s the Iceland Call)
         Am                      F       G   Am
It´s the Iceland Call. (It´s the Iceland Call)
         Am                               G               F
Like the thunder and the roars. (Like the thunder and the roars)
         Am                      F       G   Am
It´s the Iceland Call. (It´s the Iceland Call)

[Pre-Verse]

E|-------------------------------------------------------------------------|
B|-10—-10-10--12--13-12-10(10)-12--13-12-10--12-10-----10--10--------------|
G|-------------------------------------------------12----------------------|
D|-------------------------------------------------------------------------|
A|-------------------------------------------------------------------------|
E|-------------------------------------------------------------------------|

E|------------------------------12--12-10-----10----------------------|
B|-10--10-10--12--13-12-10(10)------------13-----13-12-10-------------|
G|--------------------------------------------------------------------|
D|--------------------------------------------------------------------|
A|--------------------------------------------------------------------|
E|--------------------------------------------------------------------|


[Verse]
Am                      C                               
Driven by faith, by the power of a dream,                             
F           G             Am
together we will stand as one.
    Am                         C                        
The few who remain will go for ashes and speak
   F        G             Am
„Beware the battle´s just begun“.


[Pre-Chorus]
Dm                          Am
Now we feel like hero’s our destiny is in sight,
Dm              F              Esus4          E
Like a force of nature, we are loving for the fight.


[Bridge]

Huh!
E|-------------------------------------------------|
B|-10—-12--13-12-10--12-10-----10--10--------------|
G|-------------------------12----------------------|
D|-------------------------------------------------|
A|-------------------------------------------------|
E|-------------------------------------------------|
Huh!
E|-----12--12-10-----10----------------------|
B|-10------------13-----13-12-10-10----------|
G|-------------------------------------------|
D|-------------------------------------------|
A|-------------------------------------------|
E|-------------------------------------------|


[Chorus]

         Am                     G        F
It´s the Iceland Call. (It´s the Iceland Call)
         Am                     F        G   Am
It´s the Iceland Call. (It´s the Iceland Call)
         Am                               G               F
Like the thunder and the roars. (Like the thunder and the roars)
         Am                     F        G   Am
It´s the Iceland Call. (It´s the Iceland Call)


[Pre-Chorus]
   Dm                          Am 
We all can be hero’s for we‘re ordinary men.
         Dm             F      Esus4         E
With the burning in our hearts, here we are again.


[Middle 8]

Huh!  Huh!
  
                 Huh!                    Huh!
It´s the Iceland Call. Its´s the Iceland Call.
                          Huh!   
Like the thunder and the roars. 

E|-------------------------------------------------|
B|-10—-12--13-12-10--12-10-----10--10--------------|
G|-------------------------12----------------------|
D|-------------------------------------------------|
A|-------------------------------------------------|
E|-------------------------------------------------|
                Huh!
It´s the Iceland Call.
E|-----12--12-10-----10----------------------|
B|-10------------13-----13-12-10-10----------|
G|-------------------------------------------|
D|-------------------------------------------|
A|-------------------------------------------|
E|-------------------------------------------|


[Chorus]

         Am                      G       F
It´s the Iceland Call. (It´s the Iceland Call)
         Am                      F       G    Am
It´s the Iceland Call. (It´s the Iceland Call)
         Am                               G               F
Like the thunder and the roars. (Like the thunder and the roars)
         Am                      F       G   Am
It´s the Iceland Call. (It´s the Iceland Call)

Hey!

[Outro]

E|-------------------------------------------------------------------------|
B|-10—-10-10--12--13-12-10(10)-12--13-12-10--12-10-----10--10--------------|
G|-------------------------------------------------12----------------------|
D|-------------------------------------------------------------------------|
A|-------------------------------------------------------------------------|
E|-------------------------------------------------------------------------|

E|------------------------------12--12-10-----10----------------------|
B|-10--10-10--12--13-12-10(10)------------13-----13-12-10-------------|
G|--------------------------------------------------------------------|
D|--------------------------------------------------------------------|
A|--------------------------------------------------------------------|
E|--------------------------------------------------------------------|
                               Iceland Call.

E|-------------------------------------------------------------------------|
B|-10—-10-10--12--13-12-10(10)-12--13-12-10--12-10-----10--10--------------|
G|-------------------------------------------------12----------------------|
D|-------------------------------------------------------------------------|
A|-------------------------------------------------------------------------|
E|-------------------------------------------------------------------------|

E|------------------------------12--12-10-----10----------------------|
B|-10--10-10--12--13-12-10(10)------------13-----13-12-10-------------|
G|--------------------------------------------------------------------|
D|--------------------------------------------------------------------|
A|--------------------------------------------------------------------|
E|--------------------------------------------------------------------|
                              Iceland Call.



************************************

| (n)  Ghost note

************************************
Suggest correction
Give kudos to tab author, rate the tab!
1 2 3 4 5
comments
print report bad tab
guest
You may want to rate the tab now too:
select rating
Wanna post a correction for this tab? Suggest correction