Oops, an error
Loading. Please wait.

Dream Lantern Acoustic tab

version 1
version 1

Whole song

  • This is based on the arrangment in this video: htt... Show more
  • Based off of YouTube video, https://www.youtube.com/watch?v=GwgycQlLUE0.

Interactive

2,149 views 63 this week
no commentswrite comment
1 2 3 4 5
x 3
add to favorites
×
Save as Personal and add changes to this tab that will be seen only by you. Learn more ›
×
You can save this tab as Personal to edit and correct it or add notes. All changes will be seen only by you. Learn more »
launch autoscroll
font size
0
reset
how to read this tab
guitar tuner
edit
Autoscroll
slow
fast
+/-
esc
set tempo
stop
Author
Difficulty
This is based on the arrangment in this video: https://www.youtube.com/watch?v=GwgycQlLUE0 
It is not a note for note tab of the original song.
The version in the video is in standard tuning but the original is in Eb so if you want to play along
with the RADWIMPS' version, you'll have to tune a half step down.


[Intro]

e|----0---7~------------4-2-0-0---0-------0-----7~---------4~---------------7~--|
B|--0---0-------0---0-----------4---4-0-----4-0------0---0------0-5-7-0-5-------|
G|----------------2---2-----------------2---------------------------------------|
D|------------------------------------------------------------------------------|
A|--0~--------------------------------------------------------------------------|
E|-----------------------------------------------------0~------------------0~---|

e|--7-0-9-7-0-----0-2-0-7~---0~~----------------------|
B|------------0h2------------0~~----------------------|
G|---------------------------1~~----------------------|
D|---------------------------2~~----------------------|
A|---------------------------2~~----------------------|
E|----------------------0~---0~~---0~----0~----0~-----|


[Verse 1]

e|--7--7-7--7-7-7-4-2-2p0-4---------------|
B|----------------------------------------|
G|----------------------------------------|
D|----------------------------------------|
A|--4~----------0~------------------------|
E|------------------------0~----0~----0~--|


e|--12-11-12---7--7-7--7-7-12-11-9--------9------4-5-4-2~--------|
B|---------------------------------12--12---12~------------------|
G|---------------------------------------------------------------|
D|---------------------------------------------------------------|
A|-----------4~------------0~--------------------------2~----2~--|
E|------------------------------------------0~-------------------|



e|--7--7-7--7-7-7-4-2-2p0-4---------------|
B|----------------------------------------|
G|----------------------------------------|
D|----------------------------------------|
A|--4~----------0~------------------------|
E|------------------------0~----0~----0~--|


e|--0-2-4-2-0~--0~-0~--0~--0-2-4-2-0~--0~-0-2~--|--0-2-4-2-0~--0~-0~--0~--0-2-4-2-0~--7~-0-2~-0h2p0--|
B|------------2------2---------------2----------|------------2------2---2-----------2----------------|
G|----------------------------------------------|----------------------------------------------------|
D|----------------------------------------------|----------------------------------------------------|
A|--------4~-----------0~-------------------2~--|--------4~-----------0~-------------------2~--------|
E|-------------------------------0~-------------|-------------------------------0~-------------------|


[Bridge]

A E A E 



[Verse 2]

e|--7--7-7--7-7-7-4-2-2p0-4--0--7-7-7-9-7-4-2-2-0--7--7-7-7-7-7-7-4-2-0--0-2-4-5-4-22-0-2-4-5-4-2--|
B|-------------------------------------------------------------------------------------------------|
G|-------------------------------------------------------------------------------------------------|
D|-------------------------------------------------------------------------------------------------|
A|--4~----------0~--------------------------2~-----4~-----------0~---------------------------------|
E|------------------------0~---------------------------------------------0~-----------0~-----------|

e|--7--7-7-4-4-4-2-0-2-0-2-0-4--7-7-7-9-7-4-2-2-0--7--7-7-7-7-7-7-4-2-0--0-2-4-5-4-22-0-2-4-5-4-2--|
B|-------------------------------------------------------------------------------------------------|
G|-------------------------------------------------------------------------------------------------|
D|-------------------------------------------------------------------------------------------------|
A|--4~-----------0~-------------------------2~-----4~-----------0~---------------------------------|
E|---------------------------0~------------------------------------------0~-----------0~-----------|


[Pre-Chorus]

e|--0-------------2--0-------0-2-2~--0--|
B|--3-3----3----3--------3-------3~--0--|
G|--2----------------------------2~--1--|
D|--0----0----0--------0---0-----0~--2--|
A|-----------------------------------2--|
E|-----------------------------------0--|


[Chorus]

e|----0-0-2-5-4-2-0-x---x---0~---|
B|--2--(2)------3~--2-2-3-2-0~---|
G|--------------2~--2---2---1~---|
D|----------0~--0~--2---2---2~---|
A|--2~--------------0---0---2~---|
E|--------------------------0~---|


e|----0-0-2-5-4-2-0-x---x---0~-----------------------------------------------|
B|--2--(2)------3~--2-2-3-2-0~--0-2-0---0---0-2-2-----0-2-0---0---0-2-2---4--|
G|--------------2~--2---2---1~--------2---2~------2---------2---2~------2-4--|
D|----------0~--0~--2---2---2~-----------------------------------------------|
A|--2~--------------0---0---2~------------2~--------------------0~--------2--|
E|--------------------------0~----------------------0~-----------------------|

e|-------------------------------------------------------------------|
B|------0-2-2---------------------------------0-2-0--------0-2-0-----|
G|--2-2-------2-2-2~-2-1-2-(2)-2~--2~--2~-2-2-------2--2-2-------2---|
D|-------------------------------------------------------------------|
A|--0~----------0-------------------------0~-------------------------|
E|--------------------------2~---2~--0~----------------0~------------|


[Outro]

A E D

e|--0~--0--t--4--p--0~-----|
B|--2~---------------------|
G|--2~---------------------|
D|--2~---------------------|
A|--0~---------------------|
E|-------------------------|


************************************

| x   Dead note
|(n)  Ghost note
| h   Hammer-on
| p   Pull-off
| t   Tapping
| ~   Hold note


************************************
Suggest correction
Creating personal tab
Creating personal tab
You can edit any tab online and save it as your Personal.

You can edit, replace or remove any tab part or add personal notes – all changes will be seen only by you.

Personal tabs can be accessed anytime from any device, even offline.
Learn more »
Give kudos to tab author, rate the tab!
1 2 3 4 5
comments
print report bad tab
guest
You may want to rate the tab now too:
select rating
Wanna post a correction for this tab? Suggest correction