Oops, an error
Loading. Please wait.

Dream Lantern Acoustic tab

version 2
version 2

Whole song

  • This is based on the arrangment in this video: htt... Show more
  • Based off of YouTube video, https://www.youtube.com/watch?v=GwgycQlLUE0.

Interactive

865 views 132 this week
no commentswrite comment
1 2 3 4 5
3 more votes to show rating
add to favorites
×
Save as Personal and add changes to this tab that will be seen only by you. Learn more ›
×
You can save this tab as Personal to edit and correct it or add notes. All changes will be seen only by you. Learn more »
launch autoscroll
font size
0
reset
how to read this tab
guitar tuner
edit
Autoscroll
slow
fast
+/-
esc
set tempo
stop
Author
Difficulty
Based off of YouTube video, https://www.youtube.com/watch?v=GwgycQlLUE0
Inspired by imnotokay62's submission,
https://tabs.ultimate-guitar.com/r/radwimps/dream_lantern_acoustic_tab.htm
--------------------------------------------
Song: Dream Lantern
Artist: RADWIMPS
Tuning: Standard (EADGBE) OR (to play along the song) Half-Step Down Tuning (EbAbDbGbBbeb)
Recommended Tempo: Allegro (120–168 bpm)
Time Signature: 4/4
--------------------------------------------
[Intro]
   E E E Q.   E E   E E E E S S S S E E   E E E Q.   E E   E Q.   S S S S E E
e|---0---7--------|-----4-2-0---0-------|-0-----7--------|---4----------7------|
B|-0---0------0---|-0---------4---4-0---|---4-0------0---|-0------0-5-7---5-0--|
G|--------------2-|---2---------------2-|----------------|---------------------|
D|----------------|---------------------|----------------|---------------------|
A|-0--------------|---------------------|----------------|---------------------|
E|----------------|---------------------|-0------------0-|---------------------|

                                                                       PM
   Q.   H    +E     E S E S E S S E E E   Q.    Q.    Q    Q   Q   Q   Q
e|-7----0----(0)--|-7-0-9-7-0-----0-2-0-|-7-----0--------|---------------------|
B|----------------|-----------0-2-------|-------0--------|---------------------|
G|----------------|---------------------|-------1--------|---------------------|
D|----------------|---------------------|-------2--------|---------------------|
A|----------------|---------------------|-------2--------|---------------------|
E|-0--------------|---------------------|-0-----0-----0--|-0---0---0---x-------|

[Verse 1]
   E. S E S S E E E S S   Q   Q   E.  S  S  E S
e|-7--7-7-7-7-7-4-2-2-0-|-4----------12-11-12-0--|
B|----------------------|------------------------|
G|----------------------|------------------------|
D|----------------------|------------------------|
A|-4----------0---------|------------------------|
E|----------------------|-0---0---0--------------|

                                    |-3-|
   E. S E S S  E  S S  E  S S    Q  E E E Q  E E
e|-7--7-7-7-7-12-11-9-------9-|-----4-5-4-2----0-|
B|--------------------12-12---|-12---------------|
G|----------------------------|------------------|
D|----------------------------|------------------|
A|-4----------0---------------|-----------2--2---|
E|----------------------------|--0---------------|

   E. S E S S E E E S S   Q   Q   Q   S S S S
e|-7--7-7-7-7-7-4-2-2-0-|-4-----------0-2-4-2----|
B|----------------------|------------------------|
G|----------------------|------------------------|
D|----------------------|------------------------|
A|-4----------0---------|------------------------|
E|----------------------|-0---0---0--------------|

    E  S S E S S Q  S S S S    E  S S E S S  Q   S S S S
e|-(2)-0---0-0---0--0-2-4-2-|-(2)-0---0-0-2-(2)--0-2-4-2-|
B|-------2-----2------------|-------2--------------------|
G|--------------------------|----------------------------|
D|--------------------------|----------------------------|
A|--4------------0----------|----------------2-----------|
E|--------------------------|--0-------------------------|

    E  S S E S S Q  S S S S    Q   E S S  Q   S S E
e|-(2)-0---0-0---0--0-2-4-2-|-(2)--7-0-2-(2)--0-2-0-|
B|-------2-----2------------|-----------------------|
G|--------------------------|-----------------------|
D|--------------------------|-----------------------|
A|--4------------0----------|-------------2---------|
E|--------------------------|--0--------------------|

[Bridge]
A E A E

[Verse 2]
   E. S E S S E E E S S   E. S S S S S E E E E
e|-7--7-7-7-7-7-4-2-2-0-|-4--0-7-7-7-9-7-4-2-0-|
B|----------------------|----------------------|
G|----------------------|----------------------|
D|----------------------|----------------------|
A|-4----------0---------|------------------2---|
E|----------------------|-0--------------------|

   E. S S S S S E E E. S   S S S S E S S S S S S E E
e|-7--7-7-7-7-7-7-4-2----|-0-2-4-5-4-2-2-0-2-4-5-4-2---|
B|---------------------0-|-----------------------------|
G|-----------------------|-----------------------------|
D|-----------------------|-----------------------------|
A|-4------------0--------|-----------------------------|
E|-----------------------|-0-------------0-------------|

   E. S S S S S S S S S S S S S   E. S S S S S E E E E
e|-7--7-7-4-4-4-2-0-2-0-2-0-2-0-|-4--0-7-7-7-9-7-4-2-0-|
B|------------------------------|----------------------|
G|------------------------------|----------------------|
D|------------------------------|----------------------|
A|-4------------0---------------|------------------2---|
E|------------------------------|-0--------------------|

   E. S S S S S E E E. S   S S S S E S S S S S S E E
e|-7--7-7-7-7-7-7-4-2--0-|-0-2-4-5-4-2-2-0-2-4-5-4-2---|
B|-----------------------|-----------------------------|
G|-----------------------|-----------------------------|
D|-----------------------|-----------------------------|
A|-4------------0--------|-----------------------------|
E|-----------------------|-0-------------0-------------|

[Pre-Chorus]
   Q  E S E S S S E E   E S E S E Q  Q
e|-0--------------2---|-----2---2-2--0--|
B|-3--3---3---3-------|-3---------3--0--|
G|--------------------|-----------2--1--|
D|-0----0---0---0---0-|---0---0---0--2--|
A|--------------------|--------------2--|
E|--------------------|--------------0--|

[Chorus]
       PM                 PM       PM
   E E E E E E E E   E. S E S S Q  E E
e|---0-0-2-5-4-2-0-|-0----0-----0--0----|
B|-2---2-------3---|-2--2-3-2-2-0--0----|
G|-------------2---|-2----2-----1--1----|
D|---------0---0---|-2----2-----2--2----|
A|-----------------|-0----0-----2--2----|
E|-2---------------|------------0--0-0--|

       PM                 PM
   E E E E E E E E   E. S E S S E.  S S S S S
e|---0-0-2-5-4-2-0-|-0----0-----0----------------|
B|-2---2-------3---|-2--2-3-2-2-0---0-2-0---0----|
G|-------------2---|-2----2-----1---------2------|
D|---------0---0---|-2----2-----2----------------|
A|-----------------|-0----0-----2----------------|
E|-2---------------|------------0----------------|

         PM                         PM       PM
   E S S S S E E. S S S S S   E S S S S E Q  E E
e|--------------------------|--------------------|
B|---0-2-x-2------0-2-0---0-|---0-2-x-2---4--x---|
G|-2---------2----------2---|-2---------2-4--x---|
D|--------------------------|--------------------|
A|--------------------------|-0-----------2--x-2-|
E|-2-----------0------------|--------------------|

           PM          PM           PM
   S S S S S S E S S E S S S S   Q  E E E E E E
e|-----------------------------|-----------------|
B|-----0-2-x-2-----------------|-----------------|
G|-2-2---------2-2-2-2-x-2-1-2-|--------2---2----|
D|-----------------------------|-----------------|
A|-0---------------------------|-----------------|
E|---------------0-------------|-2--x-2---2---0--|

           PM            PM
   S S S S S S E S S S S S S E       W    W    W
e|------------------------------|
B|-----0-2-x-0-------0-2-x-0----|  
G|-2-2---------2-2-2---------2--|    A    E    D
D|-0----------------------------|
A|------------------------------|
E|---------------0--------------|

           T
   H    Q  E  E     W
e|-0----2--4p=0---|-0-----------||
B|-0--------------|-2-----------||
G|-1--------------|-1-----------||
D|-2--------------|-2-----------||
A|-2--------------|-0-----------||
E|-0--------------|-------------||

Duration Legend
---------------
W - whole
H - half
Q - quarter
E - 8th
S - 16th
T - 32nd
. - note dotted
----------------

Tablature Legend
----------------

 h   - hammer-on
 p   - pull-off
 /\  - slide into or out of (from/to "nowhere")
 s   - legato slide
 S   - shift slide
 T   - tap
 PM  - palm muting

----------------

            
            
Suggest correction
Creating personal tab
Creating personal tab
You can edit any tab online and save it as your Personal.

You can edit, replace or remove any tab part or add personal notes – all changes will be seen only by you.

Personal tabs can be accessed anytime from any device, even offline.
Learn more »
Give kudos to tab author, rate the tab!
1 2 3 4 5
comments
print report bad tab
guest
You may want to rate the tab now too:
select rating
Wanna post a correction for this tab? Suggest correction