Oops, an error
Loading. Please wait.

Mitsuhas Theme Acoustic tab

160 views 6 this week
no commentswrite comment
1 2 3 4 5
3 more votes to show rating
add to favorites
×
Save as Personal and add changes to this tab that will be seen only by you. Learn more ›
×
You can save this tab as Personal to edit and correct it or add notes. All changes will be seen only by you. Learn more »
launch autoscroll
font size
0
reset
how to read this tab
guitar tuner
edit
Autoscroll
slow
fast
+/-
esc
set tempo
stop
About this tab version
A1, B1, C1, etc. represents each section in the song. A2, B2, C2, etc. represents each section variation in the song. Was this info helpful? Yes No
 [A1]
   1  2  3 + 4 +     1 + 2 + 3 + 4+    1 2 3 + 4 +     1 + 2 + 3 + 4 +
e|-----------------|-0-3-1-0-----0--|-(0)------------|-----0-----------|
B|-------------1-3-|---------3-1----|----------------|-1-3---0-1-------|
G|-----------------|-----0----------|------------0-2-|-----0-----0-2---|
D|-----------------|-3-------2---3--|-(3)------------|-3-------2---3---|
A|-----------------|----------------|----------------|-----------------|
E|-----------------|----------------|----------------|-----------------|


   1  2  3 + 4 +     1 + 2 + 3 + 4+    1 2 3 + 4 +     1 + 2 + 3 + 4 +
e|-----------------|-0-3-1-0-----0--|-(0)------------|-----0-----------|
B|-------------1-3-|---------3-1----|----------------|-1-3---0-1-------|
G|-----------------|-----0----------|------------0-2-|-----0-----0-2---|
D|-----------------|-3-------2---3--|-(3)------------|-3-------2---3---|
A|-----------------|----------------|----------------|-----------------|
E|-----------------|----------------|----------------|-----------------|

 [B1]
   1   +   2 + 3+   4   +   1   +   2+ 3 +   4   +
e|---3---3--------3---3---|---3---3------------0---|
B|-1---1---1----1---1---1-|-1---1---1----1-3-1---1-|
G|------------------------|------------------------|
D|------------------------|------------------------|
A|------------------------|-0----------------------|
E|-1----------------------|------------3-----------|


   1   +   2 + 3+   4   +   1   +   2+ 3   +   4   +
e|---3---3--------3---3---|---3---3---------------------|
B|-1---1---1----1---1---1-|-1---1---1----1-0------------|
G|------------------------|------------------0-2---0----|
D|------------------------|----------------------2------|
A|------------------------|-0------------------------2--|
E|-1----------------------|------------3----------------|


   1   +   2 + 3+   4   +   1   +   2+ 3 +   4   +
e|---3---3--------3---3---|---3---3------------0---|
B|-1---1---1----1---1---1-|-1---1---1----1-3-1---1-|
G|------------------------|------------------------|
D|------------------------|------------------------|
A|------------------------|-0----------------------|
E|-1----------------------|------------3-----------|


   1   +   2 + 3+   4   +   1   +   2 + 3  +  4  +
e|-------0------------0---|-------0----------------|
B|-1-3-1---1----1-3-1---1-|-1-3-1---1--------------|
G|------------------------|------------------------|
D|------------------------|------------------------|
A|------------------------|------------------------|
E|-1----------------------|-1----------------------|

 [C1]
    ^                                                          ^          ^
    1 + 2 + 3 + 4 +   1 + 2 + 3 + 4   +      1 + 2 + 3 + 4 +   1 + 2 +    3 + 4 +
e|--3-----------0---|-3-----------3-------|------3-----------|-0-------------------|
B|--1---1---3---1---|-----1---3---6-5-3-1-|--------------1---|-------3----3--------|
G|------------------|---2---2---2---------|------0---2---0---|-5---5---5--4---4----|
D|----3---3---3---3-|---------------------|----3---3---3---3-|-5-5---5----5-5---5--|
A|------------------|-0-------------------|------------------|-3-------------------|
E|--1---------------|---------------------|--1---------------|------------3--------|

    ^                                        ^                 ^        ^
    1 + 2 + 3 + 4 +   1 + 2 + 3 + 4   +      1 + 2 + 3 + 4 +   1 + 2 +  3  +  4  +
e|--3-----------0---|-3-----------3-------|------3-----------|-0-------------------|
B|--1---1---3---1---|-----1---3---6-5-3-1-|--------------1---|----------3----------|
G|------------------|---2---2---2---------|------0---2---0---|-5---5----4----------|
D|----3---3---3---3-|---------------------|----3---3---3---3-|-5-5---5--5----------|
A|------------------|-0-------------------|------------------|-3-------------------|
E|--1---------------|---------------------|--1---------------|----------3----------|

 [A2]
    1+ 2+ 3+ 4+     1 + 2 + 3 + 4+    1+ 2+ 3+ 4+     1 + 2 + 3 + 4+
e|----------------|-0-3-1-0-----0--|-(0)------------|-----0----------|
B|-(3)--------1-3-|---------3-1----|----------------|-1-3---0-1------|
G|-(4)------------|-----0----------|------------0-2-|-----0-----0-2--|
D|-(5)------------|-3-------2---3--|-(3)------------|-3-------2---3--|
A|----------------|----------------|----------------|----------------|
E|-(3)------------|----------------|----------------|----------------|

                                                    [D1]              *2/4* 
   1+ 2+ 3+ 4 +     1 + 2 + 3 + 4+    1+ 2+ 3 + 4 +   1 + 2 + 3 + 4 +  1 + 2 +
e|----------------|-0-3-1-0-----0--|-(0)------------|---------0---3-1|-5-3-8-6--|
B|------------1-3-|---------3-1----|----------------|-1-0-3-1---3----|----------|
G|----------------|-----0----------|------------0-2-|-----2---3---3--|-3--------|
D|----------------|-3-------2---3--|-(3)------------|-3--------------|-----8----|
A|----------------|----------------|----------------|----------------|----------|
E|----------------|----------------|----------------|----------------|----------|

 *4/4*
   |--3--| |--3--| |--3--| |--3--|   |--3--| |--3-| |--3--| |--3-|
   1       2       3       4         1       2      3       4
e|---------10--------------10------|---------9--------------9------|
B|-10-8-10----10-8-10-8-10----10-8-|-10-8-10---10-8-10-8-10---10-8-|
G|---------------------------------|-------------------------------|
D|---------------------------------|-------------------------------|
A|--0-------0-------0-------0------|--0------0-------0------0------|
E|---------------------------------|-------------------------------|


   |--3--| |--3--| |--3--| |--3--|   |--3--| |--3-| |--3--|
   1       2       3       4         1       2      3       4   +
e|---------10--------------10------|---------9------10------------------|
B|-10-8-10----10-8-10-8-10----10-8-|-10-8-10---8-10----8-10-----10-(10)-|
G|---------------------------------|--------------------------9---------|
D|---------------------------------|------------------------7-----------|
A|--0-------0-------0-------0------|--0---------------------------------|
E|---------------------------------|------------------------------------|


 [B2]
   1   +   2 + 3+   4   +   1   +   2+ 3 +   4   +
e|---3---3--------3---3---|---3---3------------0---|
B|-1---1---1----1---1---1-|-1---1---1----1-3-1---1-|
G|------------------------|------------------------|
D|------------------------|------------------------|
A|------------------------|-0----------------------|
E|-1----------------------|------------3-----------|


   1   +   2 + 3+   4   +   1   +   2+ 3   +   4   +
e|---3---3--------3---3---|---3---3---------------------|
B|-1---1---1----1---1---1-|-1---1---1----1-0------------|
G|------------------------|------------------0-2---0----|
D|------------------------|----------------------2------|
A|------------------------|-0------------------------2--|
E|-1----------------------|------------3----------------|


   1   +   2 + 3+   4   +   1   +   2+ 3+ 4+
e|-------0------------0---|-------0---------|
B|-1-3-1---1----1-3-1---1-|-1-3-1---1-------|
G|------------------------|-----------------|
D|------------------------|-----------------|
A|------------------------|-----------------|
E|-1----------------------|-1---------------|


   1   +   2 + 3 + 4 +    1 + 2+ 3+ 4   +
e|---3-----------------|----------------0-3-|
B|-1---1-3-1-----------|-(1)--------1-3-----|
G|---------------------|--------------------|
D|---------------------|--------------------|
A|---------------------|--------------------|
E|-1-------------------|--------------------|


 [E1]
   1 + 2 + 3 + 4   +    1+ 2+ 3+ 4+  1 + 2 + 3 + 4 +    1+ 2+ 3+ 4   +
e|-5---3---0-----3-0-|-(0)---------|-----------0---3-|-(3)-----------0-3--|
B|---5---3---1-3-----|-------------|---1---3-1---3---|-----------1-3------|
G|-------------------|-------------|-0---4-----------|--------------------|
D|-3-----------------|-------------|-----------------|--------------------|
A|---------0---3-----|-------------|---------0---3---|--------------------|
E|-----3-------------|-------------|-1---3-----------|--------------------|


   1 + 2 + 3 + 4   +    1+ 2+ 3+ 4+  1 + 2 + 3 + 4 +    1 + 2 + 3 + 4 +
e|-5---3---0-----3-0-|-(0)---------|-----------0-----|-------------------|
B|---5---3---1-3-----|-------------|---1---3-1---3-1-|-(1)---------------|
G|-------------------|-------------|-0---4-----------|-------------------|
D|-3-----------------|-------------|-----------------|-------------------|
A|---------0---3-----|-------------|---------0---3---|-------------------|
E|-----3-------------|-------------|-1---3-----------|-------------------|


 [F1]
   1    +    2    +   3   +   4   +     1    +    2    +   3    +     4    +
E|------8---------0-3---0-----------0-|------8---------0------8-10-12-10-8----|
B|-10-8---12-10-8-----3---1-3---1-3---|-10-8---12-10-8---8-10--------------10-|
G|----------------------------2-------|---------------------------------------|
D|------------------------------------|--------------------10-----------------|
A|--8--------10-------3-------0-------|--8--------10-------------------0------|
E|------------------------------------|---------------------------------------|


                                      [G1]
   1    +    2    +   3   +   4   +     1   +   2   +   3   +   4   +
e|------8---------0-3---0-----------0-|------------------------------------|
B|-10-8---12-10-8-----3---1-3---1-3---|-1----------------------------------|
G|----------------------------2-------|-----0-2-----0----------------------|
D|------------------------------------|-----------2-----0-2-----0----------|
A|--8--------10-------3-------0-------|---3-------------------3-----0------|
E|------------------------------------|-1-------1-----1-----1-----1---1----|


   1   +   2   +   3   +   4   +   1   +   2   +   3   +   4   +
e|-------------------------------|-0-------------------------------|
B|-1-----------------------------|-1-3-1-----------3---------------|
G|-----0-2-----0-----------------|-----0-2-----0-----------2-------|
D|-----------2-----0-2-----0-----|-----------2-----0-2-----0-------|
A|---3-------------------3-----0-|---3-------------------3-----0---|
E|-1-------1-----1-----1-----1---|-0-------0-----0-----0-----0---0-|


   1   +   2   +   3   +   4   +   1   +   2   +   3   +   4   +
e|-----------------3-------------|-0---------------0---------------|
B|-1-----------3-1---------1-----|-1-------------------------------|
G|-----0-2-----0-----------------|-----0-2-----0-------------------|
D|-----------2-----0-2-----0-----|-----------2-----0-2-----0-------|
A|---3-------------------3-----0-|---3-------------------3-----0---|
E|-0-------0-----0-----0-----0---|-1-------1-----1-----1-----1---1-|


 [Ending]
   1   +   2   +   3   +   4   +       1  +  2  +  3  +  4  +
e|-------------0-----3---0-5-----10-|-(10)------------------------||
B|-1-----3---1-----3-----------8----|-----------------------------||
G|-----0----------------------------|-----------------------------||
D|----------------------------------|-----------------------------||
A|---3-----------------------8------|-----------------------------||
E|-1-------1-----1-----1------------|-----------------------------||


*********************************
Tablature Legend
----------------
() - Tied note
^  - Brush upwards
|-3-| - Triplets
*2/4* - Tempo changed to 2/4 time
*4/4* - Tempo changed to 4/4 time
*********************************
Suggest correction
Creating personal tab
Creating personal tab
You can edit any tab online and save it as your Personal.

You can edit, replace or remove any tab part or add personal notes – all changes will be seen only by you.

Personal tabs can be accessed anytime from any device, even offline.
Learn more »
Give kudos to tab author, rate the tab!
1 2 3 4 5
comments
print report bad tab
guest
You may want to rate the tab now too:
select rating
Wanna post a correction for this tab? Suggest correction