Oops, an error
Loading. Please wait.

Nandemonaiya Acoustic tab

3,490 views 246 this week
2 commentsread comments
1 2 3 4 5
2 more votes to show rating
add to favorites
×
Save as Personal and add changes to this tab that will be seen only by you. Learn more ›
×
You can save this tab as Personal to edit and correct it or add notes. All changes will be seen only by you. Learn more »
launch autoscroll
font size
0
reset
how to read this tab
guitar tuner
edit
Autoscroll
slow
fast
+/-
esc
set tempo
stop
Playing in Half-step Down (D#A#F#C#G#D#) matches the key signature of the song

Recommended Tempo: Adagio (66–76 bpm)
Time Signature: Common Time (4/4)

[Verse 1]
   1 + 2+ 3+ 4 +   1 + 2 + 3+ 4+    1 + 2+ 3+ 4 +   1 + 2 + 3 + 4 +
e|---------------|-------0----2---|-3p2p0---------|-----------------|
B|-0-----------3-|-----3----------|-3-----------0-|-----------------|
G|---2-------0---|---2------------|--------0h=2---|---------0-------|
D|-----5--5------|-0--------------|---------------|-----0-------0---|
A|---------------|----------------|-3-------------|-----------------|
E|-0-------------|----------------|---------------|-3---------------|

   1  + 2+3+ 4 +   1 + 2 + 3+ 4 +   1+ 2 + 3+ 4 +   1+ 2 + 3 + 4 +
e|---------------|----------------|---------------|-----------------|
B|-0-----------3-|-----0----------|-----------0---|--------0--------|
G|---\2p0----0---|---2---2----0-0-|----0-2------0-|------0---0---0--|
D|---------------|-0--------------|---------------|----0-------0----|
A|---------------|----------------|-3-------------|-----------------|
E|-0-------------|----------------|---------------|-3---------------|

   1 + 2+3+ 4 +    1 + 2 + 3+ 4 +  1 + 2 + 3+ 4 +   1 + 2 + 3 + 4 +
e|---------------|-------0----2--|-3p2p0-0-0------|-----------------|
B|-0----------3--|-----3---------|-3----------3-3-|-----------------|
G|---2p0----0----|---2-----------|----------------|---------0-------|
D|---------------|-0-------------|----------------|-----0-------0---|
A|---------------|---------------|-3--------------|-----------------|
E|-0-------------|---------------|----------------|-3---------------|

   1 + 2+3+ 4 +    1 + 2 + 3+ 4 +   1+ 2 + 3+ 4 +   1+ 2 + 3 + 4 +
e|---------------|----------------|---------------|-----------------|
B|------------3--|-----0----------|-----------0---|--------0--------|
G|-0h2/4----0----|---2---2----0-0-|----0-2------0-|------0---0---0--|
D|---------------|-0--------------|---------------|----0-------0----|
A|---------------|----------------|-3-------------|-----------------|
E|-0-------------|----------------|---------------|-3---------------|

[Bridge]
   1+ 2 +3 + 4+   1+ 2 + 3   + 4+   1+ 2 +3 + 4+   1 + 2 + 3 + 4 +
e|--------------|-----------------|--------------|------------------|
B|-3--0---------|-----------------|-3--0---------|------------------|
G|-2----2--0-0--|----0-0-----0----|-2----2--0/4--|-------------0----|
D|--------------|--------0h2------|-0------------|---------2--------|
A|-2------------|-3---------------|--------------|-----2------------|
E|--------------|-----------------|--------------|-0----------------|

   1+ 2 +3 + 4+   1+ 2 + 3 + 4 +   1 + 2 + 3 + 4+   1 + 2 + 3 + 4 +
e|--------------|----------------|----------------|-3---------------|
B|-3--0---------|----------------|---------3------|---------3-------|
G|-2----2--0-0--|----0-0-0-0---0-|-----0-------0--|-----0-------0---|
D|--------------|------------2---|----------------|-----------------|
A|-2------------|-3--------------|----------------|-----------------|
E|--------------|----------------|-3--------------|-----------------|

                                    ^               ^
   1+ 2 +3 + 4+   1+ 2+ 3   + 4 +   1 + 2 +3 + 4+   1+ 2 + 3 + 4 +
e|--------------|-----------------|-0h2-2p0-------|-----------------|
B|-3--0---------|-----------------|-3--------3-3--|-----------------|
G|-2----2--0-0--|----0------0-----|-2-------------|------------0----|
D|--------------|-------0h2-------|-0-------------|-2------0-2------|
A|-2------------|-3---------------|---------------|-2--0-2----------|
E|--------------|-----------------|---------------|-0---------------|

   1+ 2 + 3 + 4+   1 + 2 + 3+ 4+   1 + 2 + 3 + 4+   1 + 2 + 3 + 4 +
e|---------------|---------------|---------3------|-3---------------|
B|-3--0----------|-------0-------|----------------|---------3-------|
G|-0----2-----0--|-0---0---2--0--|-----0-------0--|-----0-------0---|
D|---------------|---0-----------|----------------|-----------------|
A|-0-------------|-2-------3-----|----------------|-----------------|
E|---------------|---------------|-3--------------|-----------------|

                                   [Chorus]
    ^                                      ^                 ^
    1+ 2+ 3+ 4+    1 + 2 + 3 + 4+   1 + 2+ 3+ 4 +   1 + 2 +  3 + 4 +
e|--3------------|---------3---5--|---0-3--3----3-|-5\3-3------0-3--|
B|--3-----3------|-----3h5---3----|-3------3--3---|----------3------|
G|--0--0-----0---|-2/4------------|-0------0------|----------2------|
D|--0------------|----------------|--------2------|-0-----0--0------|
A|--2------------|----------------|-3-------------|-----------------|
E|--3------------|----------------|---------------|----------x------|

       |-3-|    ^                  ^                  ^
   1+  2     +  3 + 4 +    1 + 2 + 3 + 4 +    1 + 2 + 3 + 4 +
e|-----------0--3---3-3--|-5\3-3-----0-3----|-------0-3--------|
B|---------3----3--------|---------3--------|-----3---3-----3--|
G|-------0------0--------|---------0--------|-----0---0--------|
D|-----0--------0--------|---------0--------|-----2------------|
A|--------------2--------|---------2--------|-3----------------|
E|-0---------------------|-------0-x--------|------------------|

           ^                ^                            |-3-|    ^
   1 + 2 + 3 + 4 +  1+ 2 +  3 + 4 +   1+ 2 + 3 + 4+   1+ 2     +  3+ 4 +
e|---0-3----------|---------3-----3-|-0--0-7-5p3-3--|----------0--3--3-3-|
B|-3-----------3--|---------3-------|--------5------|--------3----3------|
G|---------2------|------0--0---0---|---------------|------0------0------|
D|-0-------x-0----|----0------------|---------------|----0---------------|
A|----------------|-----------------|--------4------|-3------------------|
E|----------------|-3---------3-----|-1-------------|--------------------|

                                               ^                ^
   1 + 2 + 3 + 4 +   1+ 2 +  3 + 4 +   1+ 2 +  3 +4 +   1 + 2   3 + 4 +
e|-5\3-3-----0-3-0-|-3--3-3--5\3-3---|------0--3------|---0-3---3--------|
B|---------3-------|-3-------5\3-3---|----3----3----3-|-3-------3--------|
G|---------0-------|-----------------|---------0------|---------0-0---0--|
D|-0-----0-0-------|-----------------|-2--------------|---------2---2----|
A|-----------------|---------------2-|----------------|-3----------------|
E|---------x-------|-0-----------3---|-0-------x------|------------------|

                  [Outro]
                                                    ^
   1+ 2 + 3 + 4+    1 + 2 + 3 + 4 +    1+ 2 + 3  +  4 +   1 + 2 + 3 + 4 +
e|---------------|-10--------------|--(10)--2-------3--|-(3)-------------|
B|---------------|--8--------------|--(8)---3-------3--|-(3)-------------|
G|-0--4\2-2p0-0--|--0--------------|--(0)---2-------0--|-(0)----------0--|
D|-0-------------|-----------------|--------0-------2--|-(2)------2------|
A|---------------|-----------------|----------------2--|-(2)--2----------|
E|---------------|--8--------------|--(8)-----------0--|-(0)-------------|

            ^  v  ^                                  ^
    1 + 2 + 3  +  4     1 + 2 +  3 +  4 +      1  +  2+ 3 + 4 +   1 + 2 + 3 + 4 +
e|------5---------7--|-(7)-----------------|---------0---------|-----------------|
B|------3---------3--|-(3)-----------------|---------3------3--|-(3)------3------|
G|-(0)------x--x--0--|-(0)------<12>-------|---------0------0--|-(0)--0-------0--|
D|----------x--x--0--|-(0)-<12>------<12>--|-(<12>)--0------2--|-(2)-------------|
A|----------x--x--0--|-(0)-----------------|---------2------3--|-(3)-------------|
E|------2---------3--|-(3)-----------------|-------------------|-----------------|

                                                      ^
   1 + 2 + 3 + 4 +   1 + 2 + 3 + 4 +    1+ 2 + 3  +  4 +   1 + 2 + 3 + 4 +
e|-3--------------|-10--------------|--(10)--2-------3--|-(3)----------3---|
B|---------3------|--8--------------|--(8)---3-------3--|-(3)------3-------|
G|-----0-------0--|--0--------------|--(0)---2-------0--|-(0)--0-------0---|
D|----------------|-----------------|--------0-------2--|-(2)------2-------|
A|----------------|-----------------|----------------2--|-(2)--2-----------|
E|----------------|--8--------------|--(8)-----------0--|-(0)--------------|

            ^  v  ^                                    ^
    1 + 2 + 3  +  4 +   1 +   2 +  3 +  4 +      1  +  2 + 3 + 4+   1 + 2 + 3 + 4 +
e|------5---------7--|-(7)-------------------|---------10------3--|-3--------------||
B|------3---------3--|-(3)-------------<12>--|-(<12>)--8-------3--|-3--------------||
G|-(0)------x--x--0--|-(0)--------<12>-------|---------7-------0--|-0--------------||
D|----------x--x--0--|-(0)--<12>-------------|---------7----------|----------------||
A|----------x--x--0--|-(0)-------------------|---------0-------3--|-3--------------||
E|------2---------3--|-(3)-------------------|--------------------|----------------||

************************************

Tablature Legend
----------------
 ()  - tied note
 /   - slide up
 \   - slide down
 h   - hammer-on
 p   - pull-off
 ^   - strum up
 v   - strum down
|-3-| - triplets
<#>  - natural harmonic
 =   - hold bend; also acts as connecting device for hammers/pulls
 x   - on rhythm slash represents muted slash

************************************

            
            
Suggest correction
Creating personal tab
Creating personal tab
You can edit any tab online and save it as your Personal.

You can edit, replace or remove any tab part or add personal notes – all changes will be seen only by you.

Personal tabs can be accessed anytime from any device, even offline.
Learn more »
Give kudos to tab author, rate the tab!
1 2 3 4 5
comments
print report bad tab
2 comments total.
0 reply
Bigdog6473 440 4 days ago

If it's a half step down then why did you leave the chord markings as normal?

0 reply
iceburst 754 3 days ago, edited at 09:56 am

The Normal and half-step down tuning have the same exact fingerings

guest
You may want to rate the tab now too:
select rating
Wanna post a correction for this tab? Suggest correction