Oops, an error
Loading. Please wait.
We have Chord Pro version of Zen Zen Zense.
It's the closest thing you can get to the original song and it has interactive parts. Check out the tab »
×

Zen Zen Zense intro tab

version 1
version 1

Intro

  • Link to the original video https://www.youtube.com/watch?v=PDSkFeMVNFs.

Whole song

  • Disclaimer: Not my tab, Nicholas Norrie's tab ( ht... Show more

Interactive

14,020 views 225 this week
4 commentsread comments
1 2 3 4 5
x 4
add to favorites
×
Save as Personal and add changes to this tab that will be seen only by you. Learn more ›
×
You can save this tab as Personal to edit and correct it or add notes. All changes will be seen only by you. Learn more »
launch autoscroll
font size
0
reset
how to read this tab
guitar tuner
edit
Autoscroll
slow
fast
+/-
esc
set tempo
stop
[Intro]
e|----------------------11--14----11----12p11--------------------------------|
B|----------12----14-----------12----12-------12-----------------------------|
G|-------------11----11------------------------------------------------------|
D|-11h13p11------------------------------------------------------------------| (x3)
A|---------------------------------------------------------------------------|
E|---------------------------------------------------------------------------|

e|-11h14p11--------------------------14--14--14--14--14--14------------------|
B|----------14-12-14--------12-------12--12--12--12--12--12------------------|
G|-----------------------------11----11--11--11--11--11--11------------------|
D|-------------------11h13---------------------------------------------------|
A|---------------------------------------------------------------------------|
E|---------------------------------------------------------------------------|

e|-------------------11----12----11---14-------------------------------------|
B|-------12----14---------------------------12-------------------------------|
G|----------11----11----11----11---11----11----11----------------------------|
D|-11h13---------------------------------------------------------------------|
A|---------------------------------------------------------------------------|
E|---------------------------------------------------------------------------|

e|-------------------11----12----11------------------------------------------|
B|-------12----14---------------------14----12-------------------------------|
G|----------11----11----11----11---11----11----11----------------------------|
D|-11h13---------------------------------------------------------------------|
A|---------------------------------------------------------------------------|
E|---------------------------------------------------------------------------|

e|-------------------11----12----11---14-------------------------------------|
B|-------12----14---------------------------12-------------------------------|
G|----------11----11----11----11---11----11----11----------------------------|
D|-11h13---------------------------------------------------------------------|
A|---------------------------------------------------------------------------|
E|---------------------------------------------------------------------------|

e|-11h14p11--------------------------14--------------------------------------|
B|----------14-12-14--------12-------12--------------------------------------|
G|-----------------------------11----11--------------------------------------|
D|-------------------11h13---------------------------------------------------|
A|---------------------------------------------------------------------------|
E|---------------------------------------------------------------------------|


************************************

| p  Pull-off
| h  Hammer-on

************************************
Suggest correction
Creating personal tab
Creating personal tab
You can edit any tab online and save it as your Personal.

You can edit, replace or remove any tab part or add personal notes – all changes will be seen only by you.

Personal tabs can be accessed anytime from any device, even offline.
Learn more »
comments
print report bad tab
4 comments total. Showing first comments.
-2 reply
kalokagalih78 10 Feb 15, 2017 07:29 AM

very very good

0 reply
musicalyfluffi 10 Apr 01, 2017 04:34 AM

What do you mean by capo on the nineth fret? If I put it on the nineth fret...I can only have 13 frets
Please reply ASAP

guest
You may want to rate the tab now too:
select rating
Wanna post a correction for this tab? Suggest correction