Oops, an error
Loading. Please wait.
We have Chord Pro version of Zen Zen Zense.
It's the closest thing you can get to the original song and it has interactive parts. Check out the tab »
×

Zen Zen Zense Acoustic tab

version 1
version 1

Whole song

  • Disclaimer: Not my tab, Nicholas Norrie's tab ( ht... Show more

Interactive

775 views 93 this week
no commentswrite comment
1 2 3 4 5
3 more votes to show rating
add to favorites
×
Save as Personal and add changes to this tab that will be seen only by you. Learn more ›
×
You can save this tab as Personal to edit and correct it or add notes. All changes will be seen only by you. Learn more »
launch autoscroll
font size
0
reset
how to read this tab
guitar tuner
edit
Autoscroll
slow
fast
+/-
esc
set tempo
stop
*optional* Playing in Half-step Down (D#A#F#C#G#D#) matches the key signature of the song

Capo 4th fret
Recommended Tempo: Presto (168–200 bpm)
Time Signature: 4/4

 [Intro]
   |-3-|                                 |-3-|
   1  +  2 + 3+ 4 +    1  + 2 + 3 + 4+   1  +  2 + 3+ 4 +    1  + 2 + 3 + 4 +
e|------------------|------------------|------------------|-------------------|
B|--------------0-3-|-(3)---0---1-0----|--------------0-3-|-(3)---0---1-0-----|
G|-------0---2------|-----0---0-----0--|-------0---2------|-----0---0-----0---|
D|---------0--------|------------------|---------0--------|-------------------|
A|---0-2------------|------------------|---0-2------------|-------------------|
E|-3----------------|------------------|-3----------------|-------------------|

  |-3-|                                                        |-3-| |-3-| |-3-| |-3-|
   1  +  2 + 3+ 4 +    1  + 2 + 3 + 4+   1   +   2 + 3 + 4 +   1           3
e|------------------|------------------|---------------------|---------------------------|
B|--------------0-3-|-(3)---0---1-0----|---0-3-0-------------|-3---3---3---3---3---3-----|
G|-------0---2------|-----0---0-----0--|-2-------2-0-2---0---|-0---0---0---0---0---0-----|
D|---------0--------|------------------|---------------0---0-|-0---0---0---0---0---0-----|
A|---0-2------------|------------------|---------------------|-0---0---0---0---0---0-----|
E|-3----------------|------------------|---------------------|---------------------------|

   |-3-|                                 |-3-|
   1  +  2 + 3 + 4 +   1 + 2 + 3 + 4 +   1  +  2 + 3 + 4 +   1 + 2 + 3 + 4 +
e|-------------------|-----------------|-------------------|------------------|
B|---------------0---|-1---0---3-------|---------------0---|-1---0-------0----|
G|-------0---2-----0-|---0---0-----0---|-------0---2-----0-|---0---0-2-----0--|
D|---------0---0-----|-0---------0---0-|---------0---0-----|-0---------0------|
A|---0-2-----3-------|---------0-------|---0-2-----3-------|---------0--------|
E|-0-----------------|-----------------|-0-----------------|------------------|

   |-3-|
   1  +  2 + 3 + 4 +   1 + 2 + 3 + 4 +   1   +   2 + 3 +   4 +   1 2 3 +  4 +
e|-------------------|-----------------|-----------------------|--------------|
B|---------------0---|-1---0---3-------|---0-3-0---------------|--------------|
G|-------0---2-----0-|---0---0-----0---|-2-------2-0-2-----0---|-0------------|
D|---------0---0-----|-0---------0---0-|---------------0-2---0-|-0--------0---|
A|---0-2-----3-------|---------0-------|-3---------------------|-3------------|
E|-0-----------------|-----------------|-----------------------|--------------|

  [Verse 1] Palm mute the bass notes for the next little while
     1+ 2 + 3+ 4+   1+ 2 + 3+   4 +   1+ 2+ 3+ 4+   1+ 2+ 3+ 4+
e||---------------|-----------------|-------------|------------|
B||---------------|--------1--0-----|-------------|------------|
G||*-0----2-0-----|------0--------2-|-0-----------|-------0--2-|
D||*-0------------|--------0--------|-------2-----|-------2----|
A||---------------|-----------------|-3--3--3--3--|-3--3--3--3-|
E||--3--3---3--3--|-3--3---3----3---|-------------|------------|

   1 + 2 + 3 + 4 +   1 + 2 + 3+   4 +   1+ 2+ 3+ 4+   1+ 2+ 3 + 4 +
e|-----------------|------------------|-------------|---------------|
B|-0---0-1-0-------|-0-0-0-1-0--------|-------------|---------------|
G|---2-------0-0-2-|------------2---0-|-------------|-0--0--0-0-0-0-|
D|-----------------|-0---0---0----0---|-2--2--2--2--|-2--2--2-2-2-2-|
A|-2---------------|------------------|-3--3--3--3--|-3--3--3-3-3-3-|
E|-0---0---0---0---|------------------|-------------|---------------|

   1+ 2 + 3+ 4+   1+ 2 + 3+   4 +   1+ 2+ 3+ 4+   1+ 2+ 3+ 4+
e|--------------|-----------------|-------------|--------------|
B|--------------|--------1--0-----|-------------|--------------|
G|-0------------|---------------2-|-0-----------|-------0--2---|
D|-0----0-0-----|------0----------|-2--2--2--2--|-2--2--2--2---|
A|-2--2---2--2--|-2--2---2----2---|-3--3--3--3--|-3--3--3--3---|
E|-3--3---3--3--|-3--3---3----3---|-------------|--------------|

   1 + 2 + 3 + 4 +   1+ 2 + 3+   4 +   1+ 2+ 3+ 4+   1+ 2+ 3+ 4+
e|-----------------|-----------------|-------------|---------------|
B|-0---0-1-0-------|-0--0-1-0--------|-------------|---------------|
G|---2-------2-0-2-|-----------2---0-|-------------|-------0--2----|
D|-----------------|-0--0---0----0---|-2--2--2--2--|-2--2--2--2----|
A|-2---2---2---2---|-----------------|-3--3--3--3--|-3--3--3--3----|
E|-0---0---0---0---|-----------------|-------------|---------------|
                                                    
                                                 Stop palm muting and go crazy
   1 + 2 + 3 + 4 +   1+ 2 + 3+   4 +   1+ 2+ 3+ 4+   1+ 2+ 3 + 4 +
e|-----------------|-----------------|-------------|---------------|
B|-0---0---0-------|-0--0-1-0--------|-------------|----3--3-3-3-3-|
G|---2---2---2-0-2-|-----------2---0-|-------0--0--|-0--0--0-0-0-0-|
D|-----------------|-0--0---0----0---|-2--2--2--2--|-2--2--2-2-2-2-|
A|-2---2---2---2---|-----------------|-3--3--3--3--|-3--3--3-3-3-3-|
E|-0---0---0---0---|-----------------|-------------|---------------|

 [Chorus]
   1 + 2 + 3 + 4 +   1 + 2 + 3 + 4 +   1+ 2+ 3+ 4 +   1+ 2+ 3+ 4+
e|-----------------|-----------------|--------------|--------------|
B|-----0-----0-----|-0-----0-----0-0-|-3-----3------|--------------|
G|-0-2---0-2---0-2-|-0-0-2---0-2-----|----------2-2-|-------2------|
D|-2-------2-------|-2-------2-------|-0-----0------|-0--0--0--0---|
A|-2-------2-------|-3-------3-------|-2-----2------|-0-----0------|
E|-0-------0-------|-----------------|-3--3--3------|--------------|

   1 + 2 + 3 + 4 +   1 + 2 + 3 + 4 +   1+ 2+ 3+ 4 +   1+ 2+ 3+ 4 +
e|-----------------|-----------------|--------------|--------------|
B|-----0-----0-----|-0-----0-----0-0-|-3-----3------|--------------|
G|-0-2---0-2---0-2-|-0-0-2---0-2-----|----------2-2-|-------2------|
D|-2-------2-------|-2-------2-------|-0-----0------|-0--0--0--4-2-|
A|-2-------2-------|-3-------3-------|-2-----2------|-0-----0------|
E|-0-------0-------|-----------------|-3--3--3------|--------------|

   1+ 2 +3 + 4+   1+ 2 + 3 + 4+   1+ 2 +3 + 4+   1+ 2+ 3+ 4 +
e|--------------|---------------|--------------|----------------|
B|--------------|---------------|---------0-1--|-0-----0--------|
G|-----------0--|---------------|-2--2-2-------|-0-----0--------|
D|-4--2-4--2----|----2-------2--|-0------------|-2-----2----2---|
A|-2------------|-3-------------|-0------------|-2--2--2--2-----|
E|-2------------|-3-------------|--------------|-0--0--0--0-----|

   1+ 2 +3 + 4+   1+ 2+ 3+ 4+   1+ 2+ 3+ 4 +   1+ 2+ 3+ 4 +
e|--------------|-------------|--------------|------------------|
B|--------------|-------------|--------------|------------------|
G|-----------0--|-------------|-4--------4-2-|-2--------2-0-----|
D|-4--2-4--2----|----2--0-----|-0--0--0--0-0-|-0--0--0--0-0-----|
A|-4------------|-3--------3--|-0--0--0--0-0-|-0--0--0--0-0-----|
E|--------------|-------------|--------------|------------------|

                               These notes are not strict. I just
                                included the notes I put emphasis on
   1+ 2+ 3+ 4 +   1+ 2+ 3 + 4 +   1+ 2+ 3 + 4 +   1 +2 +3 + 4 +
e|--------------|---------------|---------------|---------------|
B|--------------|---------------|-3--3--3---0---|---------------|
G|-0--------0-2-|-2--2----0-0-0-|-0--0--0-0---2-|-2-2--0--0-0-0-|
D|-0--0--0--0-0-|-0--0----------|-2--2--2-2-----|-2----2--2-2---|
A|-0--0--0--0-0-|-0--0----------|-2-----2-------|-3----3--3-3---|
E|--------------|-------x-------|-0-----0-------|---------------|

   1 + 2 + 3 + 4 +    1 + 2 + 3 + 4 +   1 + 2 + 3 + 4 +   1 + 2 + 3 + 4 +
e|-----------------|------------------|-----------------|----------------|
B|-3-3---3-3-0-0---|--------------0---|-------------0---|----------------|
G|-0-0-----0-0-0-2-|-(2)----0---2---2-|---0-0-0-0-2---2-|---0-0---0---0--|
D|-0-0-----0-0-0---|--0---0---0-------|-2---2-2-2-------|-2-----2---2----|
A|-2-------2-------|--0-------0-------|-2-------2-------|-3-----3--------|
E|-3---3-----------|------------------|-0-------0-------|----------------|

   1+ 2 + 3 +4 +   1+ 2 +3 + 4 +   1+ 2+ 3 + 4 +    1  +2 +3 + 4 +
e|---------------|---------------|---------------|-----------------|
B|-3--0-3---0----|---------------|-3--3--3---0---|-----------------|
G|-2--2--------2-|---------0-0-0-|-0--0--0-0---2-|-(2)-2--0--0-0-0-|
D|-0------0------|-0--0----------|-2--2--2-2---2-|-(2)-2--2--2-2---|
A|-0------0------|-0--0----------|-2-----2-----3-|-(3)-3--3--3-3---|
E|---------------|------3--------|-0-----0-------|-----------------|

   1 + 2 + 3 + 4 +   1+ 2 + 3 + 4 +   1 + 2 + 3 + 4 +   1 + 2 + 3 + 4 +
e|-----------------|----------------|-----------------|-----------------|
B|-3---3-3---0-----|------------0---|-------------0---|-------------0---|
G|-0-----0---0-0-2-|------0---2---2-|---0-0-0-0-2---2-|---0-0---0-2---2-|
D|-0-0---0-0-0-----|-0------0-------|-2---2-2-2-------|-2-----2---2-----|
A|-2-2-----2-------|-0--0---0-------|-2-------2-------|-3-----3---3-----|
E|-3-------3-------|----------------|-0-------0-------|-----------------|

   1 + 2+ 3+ 4 +    1+  2 + 3+ 4 +   1 + 2 + 3+ 4 +   1 + 2 + 3 + 4 +
e|---------------|-----------------|----------------|-------------------|
B|---------------|-------------0---|------------0---|-------------0-----|
G|---0-0---------|------0---0----2-|---0-0---0----2-|---0-0---0-2---2---|
D|-0---------0---|--------2--------|-------2--------|-2-----2-----------|
A|-2------2----2-|-(2)-------------|-2--------------|-3-----------------|
E|-3------3----3-|-(3)-------------|-0--------------|-------------------|

 [Intro 2]
                         Thumb slaps |-3-|
   1 + 2+ 3+ 4 +    1 + 2 + 3+ 4 +   1  +  2 + 3 + 4 +   1 + 2 + 3 + 4 +
e|---------------|-----------------|-------------------|------------------|
B|---------------|-----------------|---------------0-3-|-----0---1-0------|
G|---0-0---------|-----------------|-------0---2-------|---0---0-----0----|
D|-0------0--0-0-|-(0)-------------|---------0---0-----|-0-------------0--|
A|-2------2--2-2-|-(2)-------------|---0-2-----3-------|---------0--------|
E|-3------3--3-3-|-(3)---------x-x-|-0-----------------|------------------|

   |-3-|                                 |-3-|
   1  +  2 + 3 + 4 +   1 + 2 + 3 + 4 +   1  +  2 + 3 + 4 +   1 + 2 + 3 + 4 +
e|-------------------|-----------------|-------------------|-----------------|
B|---------------0-3-|-----0---1-0-----|---------------0-3-|-----0---1-0-----|
G|-------0---2-------|---0---0-----0---|-------0---2-------|---0---0-----0---|
D|---------0---0-----|-0-------------0-|---------0---0-----|-0-------------0-|
A|---0-2-----3-------|---------0-------|---0-2-----3-------|---------0-------|
E|-0-----------------|-----------------|-0-----------------|-----------------|
 
  1   +   2 + 3 +   4 +   1 + 2 + 3 + 4 +
e|-----------------------|-----------------||
B|---0-3-0---------------|-----------------||
G|-2-------2-0-2-----0---|-0--------------*||
D|---------------0-2---0-|-0--------------*||
A|-3---------------------|-3---------------||
E|-----------------------|-----------------||

 [Outro]
   |-3-|
   1  +  2 + 3+ 4 +    1  + 2 + 3 + 4 +    1+ 2+ 3+ 4+    1+ 2+ 3+ 4+
e|------------------|-------------------|--------------|--------------||
B|--------------0-3-|-(3)---0---1-0-----|--------------|--------------||
G|-------0---2------|-----0---0-------0-|-(0)----------|-(0)----------||
D|---------0--------|-----------------0-|-(0)----------|-(0)----------||
A|---0-2-----3------|-----------------2-|-(2)----------|-(2)----------||
E|-0----------------|---------------3---|--------------|--------------||


Tablature Legend
----------------
() - Tied note
^  - Brush upwards
|-3-| - Triplets
X  - Muted note

            
            
Suggest correction
Creating personal tab
Creating personal tab
You can edit any tab online and save it as your Personal.

You can edit, replace or remove any tab part or add personal notes – all changes will be seen only by you.

Personal tabs can be accessed anytime from any device, even offline.
Learn more »
Give kudos to tab author, rate the tab!
1 2 3 4 5
comments
print report bad tab
guest
You may want to rate the tab now too:
select rating
Wanna post a correction for this tab? Suggest correction