Oops, an error
Loading. Please wait.

Black Beatles Tab

version 1
version 1

Intro

7,492 views 129 this week
no commentswrite comment
1 2 3 4 5
x 12
add to favorites
launch autoscroll
font size
0
reset
how to read this tab
guitar tuner
×
Best way to learn
"Black Beatles"
Autoscroll
slow
fast
+/-
esc
set tempo
stop
Author
Difficulty
Tuning
  follow
novice
E A D G B E
[Intro]
E|-------------------------------------0-------------------------------------------|
B|---0-------------------0-1-------------3-1-0--------------3~---------------------|
G|--------2----------2---------------------------------2~--------------------------|
D|-----2---------------------------------------------------------------------------|
A|---------------------------------------------------------------------------------|
E|---------------------------------------------------------------------------------|

E|---------------------------------|
B|----0-0-------3-3----------------|
G|---------0-0---------------------|
D|-------------------2-2-----------|
A|---------------------------------|
E|---------------------------------|



************************************

| ~  Vibrato

************************************
Suggest correction
comments
print report bad tab
guest
You may want to rate the tab now too:
select rating
Wanna post a correction for this tab? Suggest correction