Oops, an error
Loading. Please wait.

Black Beatles Tab

version 2
version 2

Intro

337 views 102 this week
no commentswrite comment
1 2 3 4 5
x 3
add to favorites
launch autoscroll
font size
0
reset
how to read this tab
guitar tuner
Autoscroll
slow
fast
+/-
esc
set tempo
stop
Help us to improve Ultimate-Guitar.com Take our survey!
×
Author
Difficulty
novice
[Intro]

e|-0-----------------0-----------------------------------------------|
B|---0------0-0h1------3-1-0-----------------------------------------|
G|-----2--2----------------------------------------------------------|
D|-------------------------------------------------------------------|
A|-------------------------------------------------------------------|
E|-------------------------------------------------------------------|

e|--------------------------------------------------------------------|
B|---------3-3-0-0-------3-3-0-0--------------------------------------|
G|-----0-0-----------0-0----------------------------------------------|
D|-2-2-------------2--------------------------------------------------|
A|--------------------------------------------------------------------|
E|--------------------------------------------------------------------|
Played either in intro or continuously with second guitar

[Chorus]

e|-0------------------0---------------7-3-|
B|---3-0-0-0-0-1-0------3-0-0-0-0-1-0-----|
G|-----------------0----------------------|
D|----------------------------------------|
A|----------------------------------------|
E|----------------------------------------|

e|-0------------------0-0---------------7-3-|
B|---3-0-0-0-0-1-0--------3-0-0-0-0-1-0-----|
G|-----------------0------------------------|
D|------------------------------------------|
A|------------------------------------------|
E|------------------------------------------|
Repeat Chorus 



************************************

| h  Hammer-on

************************************
Suggest correction
Give kudos to tab author, rate the tab!
1 2 3 4 5
comments
print report bad tab
guest
You may want to rate the tab now too:
select rating
Wanna post a correction for this tab? Suggest correction