Oops, an error
Loading. Please wait.

Malaikat Cinta Bersayap Tab

236 views 1 this week
no commentswrite comment
1 2 3 4 5
please rate
add to favorites
launch autoscroll
font size
0
reset
how to read this tab
guitar tuner
Autoscroll
slow
fast
+/-
esc
set tempo
stop
Help us to improve Ultimate-Guitar.com Take our survey!
×
Author
Difficulty
intermediate
Song      : Malaikat Cinta Bersayap
Artist    : Rafflesia
Tuning    : Standard (EADGBE)
Tabbed by : Sleepless Agustova


Intro

|-------------------------------------------------------------------------------|
|-------------------------------------------------------------------------------|
|-/12\9~~--/7-7/9~10~-----------------------------------------------------------|
|-------------------------------------------------------------------------------|
|-------------------------------------------------------------------------------|
|-------------------------------------------------------------------------------|


Hari-hari yang kujalani...
|-------------------------------------------------------------------------------|
|-------------------------------------------------------------------------------|
|-5-5-5--5-5-5-5555-----------------------------------------5-5-5--5-5-5-5555---|
|-5-5-5--5-5-5-5555--5-5-5---5-5-5-5555--3-3-3--3-3-3-3333--5-5-5--5-5-5-5555---|
|-3-3-3--3-3-3-3333--5-5-5---5-5-5-5555--3-3-3--3-3-3-3333--3-3-3--3-3-3-3333---|
|--------------------3-3-3---3-3-3-3333--1-1-1--1-1-1-1111----------------------|
  * * *  * * *       * * *   * * *       * * *  * * *       * * *  * * *

Cinta yang pernah kurasakan dulu...
|-------------------------------------------------------------------------------|
|-------------------------------------------------------------------------------|
|---------------5-5-5--5-5-5--7-7-7-7-7-7-7-7-----------------------------------|
|-3-3-3--3-3-3--5-5-5--5-5-5--7-7-7-7-7-7-7-7-5-5-5-5-5-5-5-5~~-----------------|
|-3-3-3--3-3-3--3-3-3--3-3-3--5-5-5-5-5-5-5-5-5-5-5-5-5-5-5-5~~-----------------|
|-1-1-1--1-1-1--------------------------------3-3-3-3-3-3-3-3~~-----------------|
  * * *  * * *  * * *  * * *

Chorus (no guitar)
Andai aku menjadi malaikat cinta bersayap...


Hari-hari yang kujalani...
|-------------------------------------------------------------------------------|
|-------------------------------------------------------------------------------|
|-5-5-5--5-5-5-5555----------------------------------------5-5-5--5-5-5-5555----|
|-5-5-5--5-5-5-5555--5-5-5--5-5-5-5555--3-3-3--3-3-3-3333--5-5-5--5-5-5-5555----|
|-3-3-3--3-3-3-3333--5-5-5--5-5-5-5555--3-3-3--3-3-3-3333--3-3-3--3-3-3-3333----|
|--------------------3-3-3--3-3-3-3333--1-1-1--1-1-1-1111-----------------------|
  * * *  * * *       * * *   * * *      * * *  * * *       * * *  * * *

Cinta yang pernah kurasakan dulu...
|-------------------------------------------------------------------------------|
|-------------------------------------------------------------------------------|
|---------------5-5-5--5-5-5-5555---7-7-7-7-7-7-7-7-----------------------------|
|-3-3-3--3-3-3--5-5-5--5-5-5-5555---7-7-7-7-7-7-7-7-5-5-5-5-5-5-5-5-------------|
|-3-3-3--3-3-3--3-3-3--3-3-3-3333---5-5-5-5-5-5-5-5-5-5-5-5-5-5-5-5-------------|
|-1-1-1--1-1-1--------------------------------------3-3-3-3-3-3-3-3-------------|
  * * *  * * *  * * *  * * *

Chorus I

Andai aku menjadi malaikat cinta bersayap...
|-------------------------------------------------------------------------------|
|-------------------------------------------------------------------------------|
|-5--5--5--5--9--9--9--9--------------7--7--7--7--------------------------------|
|-5--5--5--5--9--9--9--9--7--7--7--7--7--7--7--7--5--5--5--5--------------------|
|-3--3--3--3--7--7--7--7--7--7--7--7--5--5--5--5--5--5--5--5--------------------|
|-------------------------5--5--5--5--------------3--3--3--3--------------------|

Solo

|-------------------------------------------------------------------------------|
|-12/13-13-13\12-12/13-13~------------------------------------------------------|
|-------------------------------------------------------------------------------|
|--9/10-10-10\-9--9/10-10~------------------------------------------------------|
|-------------------------------------------------------------------------------|
|-------------------------------------------------------------------------------|

|-------------------------------------------------------------------------------|
|-------15-13~------------------------------------------------------------------|
|----12-----------------12~-----------------------------------------------------|
|-14-----------12-14-15-----15-13-12\10-12~-------------------------------------|
|-------------------------------------------------------------------------------|
|-------------------------------------------------------------------------------|

|-------------------------------------------------------------------------------|
|-12-13-12---------------------------15-13~-------------------------------------|
|---------14-12-------------------12--------------------------------------------|
|---------------15--15/17-14~--14-----------------------------------------------|
|-------------------------------------------------------------------------------|
|-------------------------------------------------------------------------------|

|---------------------------------^------^-----^--^-----------------------------|
|---12-13-12----------------------17~---15\13-18-18\15-13~----------------------|
|-14--------14-12---------------------------------------------------------------|
|-----------------15--15/17-14~-------------------------------------------------|
|-------------------------------------------------------------------------------|
|-------------------------------------------------------------------------------|


Kamu...oh kamu...
|-------------------------------------------------------------------------------|
|-------------------------------------------------------------------------------|
|-10~---------9~---------7~-----------------------------------------------------|
|-10~---------9~---------7~---------5~------------------------------------------|
|-8-~-888888--7~-777777--5~-555555--5~------------------------------------------|
|-----------------------------------3~------------------------------------------|

Kamu...oh kamu...
|-------------------------------------------------------------------------------|
|-------------------------------------------------------------------------------|
|-10-   --9-   --7-   --5--5--5--5--5--5--5--5---5-5-5-5------------------------|
|-10-16x--9-16x--7-16x--5--5--5--5--5--5--5--5---5-5-5-5------------------------|
|-8--   --7-   --5-   --3--3--3--3--3--3--3--3---3-3-3-3------------------------|
|-------------------------------------------------------------------------------|
  *       *      *                                 * * *


Chorus II

Andai aku menjadi malaikat cinta bersayap...
|-------------------------------------------------------------------------------|
|-------------------------------------------------------------------------------|
|-7--7--7--7--11-11-11-11--------------9--9--9--9-------------------------------|
|-7--7--7--7--11-11-11-11--9--9--9--9--9--9--9--9--7--7--7--7-------------------|
|-5--5--5--5---9--9--9--9--9--9--9--9--7--7--7--7--7--7--7--7-------------------|
|--------------------------7--7--7--7--------------5--5--5--5-------------------|


Ending

|----^--^-----------------------------------------------------------------------|
|-7/17-17-15~~~-----------------------------------------------------------------|
|-------------------------------------------------------------------------------|
|-------------------------------------------------------------------------------|
|-------------------------------------------------------------------------------|
|-------------------------------------------------------------------------------|


Thx for reviewing
Thx to : dyaz maganda, dwi k, bean, tjah2 OBLO, de el el
Suggest correction
Give kudos to tab author, rate the tab!
1 2 3 4 5
comments
print report bad tab
guest
You may want to rate the tab now too:
select rating
Wanna post a correction for this tab? Suggest correction