Oops, an error
Loading. Please wait.

Blakk Chords

10 views 6 this week
no commentswrite comment
1 2 3 4 5
3 more votes to show rating
add to favorites
launch autoscroll
font size
0
reset
transpose
0
reset
display chords
guitar tuner
Autoscroll
slow
fast
+/-
esc
set tempo
stop
Help us to improve Ultimate-Guitar.com Take our survey!
×
Author
Difficulty
novice
About this tab version
Included the solo tab at the bottom of the tab. Was this info helpful? Yes No
[Verse 1]
E
Jeg,
E
Jeg er helt blakk
E              B
Brødskiver til middag
A              G
Brødskiver til dessert

[Verse 2]
E
Jeg,
E
Jeg er helt blakk
E              B
Jeg har vrengt lommene tusen ganger
A              E
men det ække noen penger der

E      D      A

[Verse 3]
E
Jeg,
E
Jeg er helt blakk
E             
Jeg er for lat til å jobbe
B
For feig til å stjele
A               G
For stolt til å tigge spenn

[Verse 4]
E
Jeg,
E
Jeg er helt blakk
E
og får jeg lånt meg en hundrings
B
så havner jeg på fylla
A               E
og blir like blakk igjen

[Solo]
E    E    E    E
E    E    D    D    
C#   C#   C    B
E    E    D    D    
C#   C#   C    B

[Verse 5]
E
Jeg,
E
Jeg er helt blakk
E               B
Jeg har lagt mange planer
A               G
men det har aldri blitt noe av

[Verse 6]
E
Jeg,
E
Jeg er helt blakk
E                B
og det ække noe kult å ikke ha råd
A                E
til å kjøpe ting som jeg vil ha

E     D     A
E     E     E

[Solo tab][00:43]
e|-12---------------------------------------------------------------------------|
B|-15b17-15-12----------12------------------------------------------------------|
G|-------------14-12-14----14-12----12b12.5-----12-14-14b-14b-14b-14b-12-12-11--|
D|-------------------------------14----------14---------------------------------|
A|------------------------------------------------------------------------------|
E|------------------------------------------------------------------------------|

e|------------------------------------------------------------------------------|
B|--------------------------------12-15b17-15-12--------------------------------|
G|-------------------------12-14b----------------14-12----12b----12--12-12-11---|
D|-14-14-14-12/9-7-9-12-14-----------------------------14-----14----------------|
A|------------------------------------------------------------------------------|
E|------------------------------------------------------------------------------|

************************************

| b  Bend
| /  Slide up

************************************
Suggest correction
Give kudos to tab author, rate the tab!
1 2 3 4 5
comments
print report bad tab
guest
You may want to rate the tab now too:
select rating
Wanna post a correction for this tab? Suggest correction