Oops, an error
Loading. Please wait.

Dk2 tab

43 views 1 this week
no commentswrite comment
1 2 3 4 5
3 more votes to show rating
add to favorites
×
Save as Personal and add changes to this tab that will be seen only by you. Learn more ›
×
You can save this tab as Personal to edit and correct it or add notes. All changes will be seen only by you. Learn more »
launch autoscroll
font size
0
reset
how to read this tab
guitar tuner
edit
Autoscroll
slow
fast
+/-
esc
set tempo
stop
Author
Difficulty
[Intro Tab]
e|------------------------|
B|------------------------|
G|------------------------|
D|------------------------|
A|---7---7---7---5--------|
E|-5---5---5---3---5------|

[Verse]
e|------------------------|
B|------------------------|
G|------------------------|
D|------------------------|
A|---3---3---3---3--------|
E|-5---5---5---5----------|

Am
Drepe en kjendis
Am
Det er på den nye bølgen
Am
Som har avskaffet USA
Am
Som har kommet til Europa

Am
Og det er lattelig enkelt 
Am
Man trenger nesten ikke trening
Am
Og det passer for alle
Am
Mellom 17 og 70

[Bridge]
e|-----------------------------------------|
B|------------------------------------10---|
G|-10-10-9-7-----------10-10-9-7-----------|
D|-----------10-9-7--------------10-9------|
A|-----------------------------------------|
E|-----------------------------------------|

[Verse]
e|------------------------|
B|------------------------|
G|------------------------|
D|------------------------|
A|---3---3---3---3--------|
E|-5---5---5---5----------|

Am
Drepe en kjendis
Am
Gjør dagens gode gjerning
Am
Du gjør verden en tjeneste
Am
Ved å ta livet av dem

Am
Og det er latterlig enkelt
Am
Man trenger nesten ikke trening
Am
Og det passer for alle
Am
Mellom 17 og 70

[Bridge] 
e|-----------------------------------------|
B|------------------------------------10---|
G|-10-10-9-7-----------10-10-9-7-----------|
D|-----------10-9-7--------------10-9------|
A|-----------------------------------------|
E|-----------------------------------------|

e|-----------------------|
B|-----------------------|
G|----8----8----8----10--| (x3)
D|-10-8-10-8-10-8-10-10--|
A|-10---10---10---10-----|
E|-----------------------|

e|-----------------------|
B|-----------------------|
G|----8----8----10-10-10-|
D|-10-8-10-8-10-10-10-10-|
A|-10---10---10----------|
E|-----------------------|

[Verse]
Am
Drepe en kjendis
G
Det er på den nye bølgen
F
Som har avskaffet USA
G
Som har kommet til Europa
Am
Og det er lattelig enkelt 
G
Man trenger nesten ikke trening
F
Og det passer for alle
G
Mellom 17 og 70
Am
Og det er morsommere enn frisbee
G
Og det er morsommere enn surfing
F
Og det er morsommere enn skateboard
G                              Am
Og det er morsommere enn space invaders

[Outro]
e|-----------------------------------------|
B|------------------------------------10---|
G|-10-10-9-7-----------10-10-9-7-----------|
D|-----------10-9-7--------------10-9------|
A|-----------------------------------------|
E|-----------------------------------------|

e|------------------------|
B|------------------------|
G|------------------------|
D|------------------------|
A|---3---3---3---3--------|
E|-5---5---5---5----------|

e|------------------------|
B|------------------------|
G|------------------------|
D|------------------------|
A|---3---3---3------------|
E|-5---5---5---5----------|

            
            
Suggest correction
Creating personal tab
Creating personal tab
You can edit any tab online and save it as your Personal.

You can edit, replace or remove any tab part or add personal notes – all changes will be seen only by you.

Personal tabs can be accessed anytime from any device, even offline.
Learn more »
Give kudos to tab author, rate the tab!
1 2 3 4 5
comments
print report bad tab
guest
You may want to rate the tab now too:
select rating
Wanna post a correction for this tab? Suggest correction