Oops, an error
Loading. Please wait.

Ashes In The Fall Tab

version 1
version 1

Whole song

Interactive

18,562 views 24 this week
12 commentsread comments
1 2 3 4 5
x 19
add to favorites
launch autoscroll
font size
0
reset
how to read this tab
guitar tuner
Autoscroll
slow
fast
+/-
esc
set tempo
stop
Help us to improve Ultimate-Guitar.com Take our survey!
×
Author
Tuning
D A D G B E
Tuning: Drop D (low to high: dadgbe)

(Fig 1)
E|------------------------------------------------------------------|
B|------------------------------------------------------------------|
G|--14-------14-------14-14-------14-------14-15-------15-------15--|
D|-----12-12----12-12-------12-12----12-12-------12-12----12-12-----|
A|------------------------------------------------------------------|
D|------------------------------------------------------------------|

E|------------------------------------------------------------------|
B|------------------------------------------------------------------|
G|--15-------15-------15-17-------17-------17-17-------17-------17--|
D|-----12-12----12-12-------12-12----12-12-------12-12----12-12-----|
A|------------------------------------------------------------------|
D|------------------------------------------------------------------|
 
(End Fig 1)
E|---------------------------------------------|
B|---------------------------------------------|
G|--15-------15-------15-15-------15-------15--|
D|-----12-12----12-12-------12-12----12-12-----|
A|---------------------------------------------|
D|---------------------------------------------|

(Fig 2.)
E|-----------------|
B|-----------------|
G|--14*-------12*--|
D|-----------------|
A|-----------------|
D|-----------------|

(Fig 3.)
E|--------------------------|
B|--------------------------|
G|--------------------------|
D|--5--5--5--5--5--5--5--5--|
A|--5--5--5--5--5--5--5--5--|
D|--5--5--5--5--5--5--5--5--|

(Fig 2.)
E|-----------------|
B|-----------------|
G|--14*-------12*--|
D|-----------------|
A|-----------------|
D|-----------------|

(Fig 3.)
E|--------------------------|
B|--------------------------|
G|--------------------------|
D|--5--5--5--5--5--5--5--5--|
A|--5--5--5--5--5--5--5--5--|
D|--5--5--5--5--5--5--5--5--|

(Fig 1)
E|------------------------------------------------------------------|
B|------------------------------------------------------------------|
G|--14-------14-------14-14-------14-------14-15-------15-------15--|
D|-----12-12----12-12-------12-12----12-12-------12-12----12-12-----|
A|------------------------------------------------------------------|
D|------------------------------------------------------------------|

E|------------------------------------------------------------------|
B|------------------------------------------------------------------|
G|--15-------15-------15-17-------17-------17-17-------17-------17--|
D|-----12-12----12-12-------12-12----12-12-------12-12----12-12-----|
A|------------------------------------------------------------------|
D|------------------------------------------------------------------|

(Fig 4.)
E|--------------------|
B|--------------------|
G|--------------------|
D|--0----3----0----3--|
A|--0----3----0----3--|
D|--0----3----0----3--|

(Fig 5.)
E|-----------------------------------------------------------|
B|-----------------------------------------------------------|
G|-----------------------------------------------------------|
D|--7-----7-----7-7-----7-----7-3-----3-----3-3-----3-----3--|
A|----5-5---5-5-----5-5---5-5-----5-5---5-5-----5-5---5-5----|
D|-----------------------------------------------------------|

(Fig 3.)
E|--------------------------|
B|--------------------------|
G|--------------------------|
D|--5--5--5--5--5--5--5--5--|
A|--5--5--5--5--5--5--5--5--|
D|--5--5--5--5--5--5--5--5--|

(Fig 6.)
E|-------------------|
B|--<7>-----<7>------|
G|------<7>-----<7>--|
D|-------------------|
A|-------------------|
D|-------------------|

(For Fig 7. Just play an A at 10 on the B string and mess with the whammy pedal while 
fading out)


************************************

| *  Natural harmonic

************************************
Suggest correction
comments
print report bad tab
12 comments total. Showing first comments.
0 reply
mrcran 0 Apr 19, 2002 12:00 AM

Very nice tab but it would be helpful to show us where these riffs go during the song

0 reply
dj_icantwalk 50 Apr 19, 2002 12:00 AM

well i did

like it says, repeat riff whatever but i was lazy so i didnt write how many times to play it. If that's what you meant, sorry, otherwise...yeah...

0 reply
jimmy_wa 10 Apr 20, 2002 12:00 AM

fuckn champion mate

guest
You may want to rate the tab now too:
select rating
Wanna post a correction for this tab? Suggest correction