Oops, an error
Loading. Please wait.
1,011 views 1 this week
3 commentsread comments
1 2 3 4 5
x 4
add to favorites
launch autoscroll
font size
0
reset
how to read this tab
guitar tuner
×
Best way to learn
"Bombtrack"
Autoscroll
slow
fast
+/-
esc
set tempo
stop

I want this tab!

Sorry, this artist has told us we can not show this tab.

Help us change their mind!
Tell us why you want to learn this song or why it is important to you, and
we will share these directly with the artist or their representative.
Your words and your story can make a difference. It works!

To understand more on what is happening, please read this article:
Why Songs on Ultimate Guitar Are Licensed (time to read: 1 minute)

comments
print report bad tab
3 comments total.
0 reply
Raging_bass2009 0 Mar 16, 2002 07:00 PM

Oops i messed up on the chorus, the 4 on string A should not be right underneath the 0 on string E

0 reply
zFabian417 10 Jun 07, 2003 08:00 PM

Your intro is pretty much correct but change the first part with this one.
E|-------------------------------------
B|-------------------------------------
G|--------------------------------0----
D|--2-0--0----------2-0---0-2-------
A|------2--2-0--------------2-----------
E|-0----------0-3-0---------------------
You chorus too change it with this one
E|--------------------------------------
B|--------------------------------------
G|-----------------------------6-5-4-----
D|-----------------------------6-5-4-----
A|-----4---------4-2----4------4-3-2-----
E|-0-2--0-2-0-2------0-2--0-2--4-3-2-----

0 reply
joew5150 10 Jul 30, 2005 08:00 PM

and the intro is palm muted

guest
You may want to rate the tab now too:
select rating
Wanna post a correction for this tab? Suggest correction