Oops, an error
Loading. Please wait.

Born Of A Broken Man Tab

version 7
version 7
1,152 views 3 this week
no commentswrite comment
1 2 3 4 5
3 more votes to show rating
add to favorites
launch autoscroll
font size
0
reset
how to read this tab
guitar tuner
Autoscroll
slow
fast
+/-
esc
set tempo
stop
Help us to improve Ultimate-Guitar.com Take our survey!
×
Author
Tuning
D A D G B E
I hope it's all right 
when something is wrong or difficult please tell me
e-mail: pc-freak93@web.de 

INTRO/VERSE (CLEAN)
e|------------------------------------------------playimg two times----||
B|---------------------------------------------------------------------||
G|-1414141414141414131313131313113/161616----------------------4-2-2---||
D|-0-0-0-0-0-0-0-0-0-0-0-0-0-0-0-0-0-0-0-17-17-17-17-17-17-17--0-0-0---||
A|-0-0-0-0-0-0-0-0-0-0-0-0-0-0-0-0-0-0-0-17-17-17-17-17-17-17--0-0-0---||
D|-0-0-0-0-0-0-0-0-0-0-0-0-0-0-0-0-0-0-0-17-17-17-17-17-17-17--0-0-0---||

Flanger/Distortion
e|--------------------------------------------Play this two times------||
B|---------------------------------------------------------------------||
G|---------------------------------------------------------------------||
D|---^5-<--Bending down------------------------------------------------||
A|-----3-0--0---3-0-xxxx-3-0-0---3-0-----------------------------------||
D|-0---3-0----0-3-0-xxxx-3-0---0-3-0-----------------------------------||

e|---------------------------------------------------------------------||
B|---------------------------------------------------------------------||
G|----------------------------22222222---------------------------------||
D|---^5-<--Bending down------------------------------------------------||
A|-----3-0--0---3-0-xxxx-----------------------------------------------||
D|-0---3-0----0-3-0-xxxx-----------------------------------------------||

e|---------------------------------------------------------------------||
B|---------------------------------------------------------------------||
G|---------------------------------------------------------------------||
D|---^5-<--Bending down------------------------------------------------||
A|-----3-0--0---3-0-xxxx-3-0-0---3-0-----------------------------------||
D|-0---3-0----0-3-0-xxxx-3-0---0-3-0-----------------------------------||

e|------------------------------------------------playimg two times----||
B|---------------------------------------------------------------------||
G|-1414141414141414131313131313113/161616----------------------4-2-2---||
D|-0-0-0-0-0-0-0-0-0-0-0-0-0-0-0-0-0-0-0-17-17-17-17-17-17-17--0-0-0---||
A|-0-0-0-0-0-0-0-0-0-0-0-0-0-0-0-0-0-0-0-17-17-17-17-17-17-17--0-0-0---||
D|-0-0-0-0-0-0-0-0-0-0-0-0-0-0-0-0-0-0-0-17-17-17-17-17-17-17--0-0-0---||


e|--------------------------------------------Play this two times------||
B|---------------------------------------------------------------------||
G|---------------------------------------------------------------------||
D|---^5-<--Bending down------------------------------------------------||
A|-----3-0--0---3-0-xxxx-3-0-0---3-0-----------------------------------||
D|-0---3-0----0-3-0-xxxx-3-0---0-3-0-----------------------------------||


e|---------------------------------------------------------------------||
B|---------------------------------------------------------------------||
G|----------------------------22222222---------------------------------||
D|---^5-<--Bending down------------------------------------------------||
A|-----3-0--0---3-0-xxxx-----------------------------------------------||
D|-0---3-0----0-3-0-xxxx-----------------------------------------------||


e|---------------------------------------------------------------------||
B|---------------------------------------------------------------------||
G|---------------------------------------------------------------------||
D|---^5-<--Bending down------------------------------------------------||
A|-----3-0--0---3-0-xxxx-3-0-0---3-0-----------------------------------||
D|-0---3-0----0-3-0-xxxx-3-0---0-3-0-----------------------------------||


e|------------------------------------------------playimg three times--||
B|---------------------------------------------------------------------||
G|-1414141414141414131313131313113/161616----------------------4-2-2---||
D|-0-0-0-0-0-0-0-0-0-0-0-0-0-0-0-0-0-0-0-17-17-17-17-17-17-17--0-0-0---||
A|-0-0-0-0-0-0-0-0-0-0-0-0-0-0-0-0-0-0-0-17-17-17-17-17-17-17--0-0-0---||
D|-0-0-0-0-0-0-0-0-0-0-0-0-0-0-0-0-0-0-0-17-17-17-17-17-17-17--0-0-0---||


e|--------------------------------------------Play this two times------||
B|---------------------------------------------------------------------||
G|---------------------------------------------------------------------||
D|---^5-<--Bending down------------------------------------------------||
A|-----3-0--0---3-0-xxxx-3-0-0---3-0-----------------------------------||
D|-0---3-0----0-3-0-xxxx-3-0---0-3-0-----------------------------------||


e|---------------------------------------------------------------------||
B|---------------------------------------------------------------------||
G|----------------------------22222222---------------------------------||
D|---^5-<--Bending down------------------------------------------------||
A|-----3-0--0---3-0-xxxx-----------------------------------------------||
D|-0---3-0----0-3-0-xxxx-----------------------------------------------||


e|---------------------------------------------------------------------||
B|---------------------------------------------------------------------||
G|---------------------------------------------------------------------||
D|---^5-<--Bending down------------------------------------------------||
A|-----3-0--0---3-0-xxxx-3-0-0---3-0-----------------------------------||
D|-0---3-0----0-3-0-xxxx-3-0---0-3-0-----------------------------------||


e|---------------------------------------------------------------------||
B|---------------------------------------------------------------------||
G|---------------------------------------------------------------------||
D|---------------------------------------------------------------------||
A|----------15-15---1717-----------15-15---1717-----------15-15---1717-||
D|-0000000----------------0000000----------------0000000---------------||


e|----------------------------------playing two times------------------||
B|---------------------------------------------------------------------||
G|-1414141414141414-13-13--13-16--------------------4--22--------------||
D|--------------------------------------------------0--00--------------||
A|--------------------------------17171717171717-----------------------||
D|--------------------------------17171717171717-----------------------||

e|--------------------------------------------Play this four times-----||
B|---------------------------------------------------------------------||
G|---------------------------------------------------------------------||
D|---^5-<--Bending down------------------------------------------------||
A|-----3-0--0---3-0-xxxx-3-0-0---3-0-----------------------------------||
D|-0---3-0----0-3-0-xxxx-3-0---0-3-0-----------------------------------||

e|---------------------------------------------------------------------||
B|---------------------------------------------------------------------||
G|----------------------------22222222---------------------------------||
D|---^5-<--Bending down------------------------------------------------||
A|-----3-0--0---3-0-xxxx-----------------------------------------------||
D|-0---3-0----0-3-0-xxxx-----------------------------------------------||

e|---------------------------------------------------------------------||
B|---------------------------------------------------------------------||
G|---------------------------------------------------------------------||
D|---^5-<--Bending down------------------------------------------------||
A|-----3-0--0---3-0-xxxx-3-0-0---3-0-----------------------------------||
D|-0---3-0----0-3-0-xxxx-3-0---0-3-0-----------------------------------||

e|-------------------------------------three times---------------------||
B|---------------------------------------------------------------------||
G|---------------------------------------------------------------------||
D|---------------------------------------------------------------------||
A|----------15-15---1717-----------15-15---1717-----------15-15---1717-||
D|-0000000----------------0000000----------------0000000---------------||

e|---------------------------------------------------------------------||
B|---------------------------------------------------------------------||
G|---------------------------------------------------------------------||
D|---^5-<--Bending down------------------------------------------------||
A|-----3-0--0---3-0----------------------------------------------------||
D|-0---3-0----0-3-0----------------------------------------------------||

e|-------------------------------------three times---------------------||
B|---------------------------------------------------------------------||
G|---------------------------------------------------------------------||
D|---------------------------------------------------------------------||
A|----------15-15---1717-----------15-15---1717-----------15-15---1717-||
D|-0000000----------------0000000----------------0000000---------------||

e|---------------------------------------------------------------------||
B|---------------------------------------------------------------------||
G|---------------------------------------------------------------------||
D|---^5-<--Bending down------------------------------------------------||
A|-----3-0--0---3-0----------------------------------------------------||
D|-0---3-0----0-3-0----------------------------------------------------||
Suggest correction
Give kudos to tab author, rate the tab!
1 2 3 4 5
comments
print report bad tab
guest
You may want to rate the tab now too:
select rating
Wanna post a correction for this tab? Suggest correction