Oops, an error
Loading. Please wait.

Bulls On Parade Tab

version 2
version 2

Whole song

Video

50,803 views 51 this week
3 commentsread comments
1 2 3 4 5
accurate
x 9
add to favorites
launch autoscroll
font size
0
reset
how to read this tab
guitar tuner
Autoscroll
slow
fast
+/-
esc
set tempo
stop
Help us to improve Ultimate-Guitar.com Take our survey!
×
Contributor
Tuning, (Eb, Ab, Db, Gb, Bb, Eb)

Intro
------------------------------
------------------------------
------------------------------ 
---4------4---4------4--4-----
------------------------------
------2----------2---------2--

w/Wah Pedal (opening and closing)
------------------------------------------
------------------------------------------
------------------------------------------
------------------------------------------
--4--4--x-x--4--4---x--x--x--x--x--x------
--2--2--x-x--2--2---x--x--x--x--x--x------

Verse w/Wah Pedal (Closed)
--------------------------------------------
--------------------------------------------
--------------------------------------------
--------------------------------------------
--------0-----2---0-------------------------
--0--2----------------0---2----2--0--0--1---

Chorus
-----------------------------------------------------------
-----------------------------------------------------------
-2-------------------------2-------------------------------
-x--4--4---x-4---4--4--4---x--4--4--4---x-4---4-4-4-4-4-4--
-x--x--x---x-x---x--x--x---x--x--x--x---x-x---x-x-x-x-x-x--
-2--2--2---x-0---2--2--2---2--2--2--2---x-2---2-2-2-2-0-2--

w/Wah pedal (opening and closing)
----------------------------------------------
----------------------------------------------
----------------------------------------------
--4--4----x--x---4--4----x--x--x--x--x--x-----
--2--2----x--x---2--2----x--x--x--x--x--x-----
----------------------------------------------

Solo
During the solo, Tom uses his Toggle switch technique while sliding his palm and 
fingertips over the 5th and 6th strings above the humbuckers. Heres a tab that will 
help you practice. Its just an example.

--------------------------------------
--------------------------------------
--------------------------------------
--------------------------------------
-/x-x\---/x-x-x\--/x\--/x-x-x\--/x-x\-
-/x-x\---/x-x-x\--/x\--/x-x-x\--/x-x\-

That's it, have a blast.
comments
print report bad tab
3 comments total.
0 reply
Jesus on Crack 48 wrote on March 20 2006, 01:45 am

Dude I think youre wrong

+1 reply
Jesus on Crack 48 wrote on June 3 2006, 03:49 am

the c.ocksuckers at UG wont publish my tab. so here it is in the comments section

The other tabs were totally wrong so heres how it really goes. If you disagree with me you can watch Battle of Mexico City and you'll see Im right.

Intro/Outro:

e|------------------
B|------------------
G|------------------
D|-4---4-4---4-4----
A|------------------
E|---2-----2-----2--

Guitar Fill:

e|--------------------
B|--------------------
G|--------------------
D|-4-4-xx-4-4-xxxxxx-- Put the wah wah pedal down on the down strums
A|-4-4-xx-4-4-xxxxxx-- and up on the up strums like so...
E|-2-2-xx-2-2-xxxxxx--
v v v^ v v v^v^v^

Verses:

e|------------------------
B|------------------------
G|------------------------
D|------------------------
A|-----0-2h0--------------
E|-0-2-------0-2-2-0-0-1--

Chorus:

e|----------------------------------------------
B|----------------------------------------------
G|----------------------------------------------
D|-4---4-x-4--4---4-x-4--4---4-x-4--4---44-4----
A|-4---4-x-4--4---4-x-4--4---4-x-4--4---44-4----
E|-0h2-2-x-2--0h2-2-x-2--0h2-2-x-2--3p2-22-0h2--

"Solo":

For the solo, Tom uses his strumming hand to change the pickups on his special Morello Guitar and uses his fret hand to rub on the strings giving it a scratching sound. He plays this in rythm and brings you the solo.

PS: He also puts his second tone dial on 0 and keeps his first on 10.

The Way it is

Intro/Outro: x8
Fill: x8
Verse: x4
Chorus: x4
Verse: x4
Chorus: x4
Fill: x4
Solo
Fill: x12
Intro/Outro:x8

If you love it, hate it or are just a stalker, all response to truestooge@gmail.com

0 reply
f-cksociety 22 wrote on June 22 2007, 12:12 pm

there isn't 3 guitars. if you have a whammy pedal you'd know that you can set it to play all 3 (normal, one up, and one down) at once with one guitar and one amp

I want to post or [tab]
guest
You may want to rate the tab now too:
select rating
Please do not post tabs as comments. Select "correction" instead!