Oops, an error
Loading. Please wait.
We have an official Bulls On Parade tab made by UG professional guitarists. Check out the tab »
×
2,867 views 18 this week
no commentswrite comment
1 2 3 4 5
x 5
add to favorites
×
Save as Personal and add changes to this tab that will be seen only by you. Learn more ›
×
You can save this tab as Personal to edit and correct it or add notes. All changes will be seen only by you. Learn more »
launch autoscroll
font size
0
reset
guitar tuner
backing track
0:00
0:00
edit
Autoscroll
slow
fast
+/-
esc
set tempo
stop
Banda: Rage Against The Machine
Canción: Bulls On Parade
Album: Evil Empire
Bajista: Tim Commerford
Transcrita por Oz Funkenstein
Sus comentarios, críticas, remodelaciones, insultos, etc... escriban a oos500@msn.com

              ===============================================================
                h  = Hammer On                          b  = bend full
                p  = Pull Off                           b½ = bend ½
                x  = nota muerta                        b¼ = bend ¼
                /  = deslizar para arriba               b¾ = bend ¾
                \  = deslizar para abajo                ~  = vibrato
                s  = slap                               tr = trill
                p  = pop                                H  = harmónico
                t  = tapping                            ( ) = dejar sonando
              ===============================================================

Afinación (Eb,Ab,Db,Gb o D#,G#,C#,F#)

Introdución

Gb|-----------------------|------------------------|
Db|--4----4--4----4--4----|--4----4--4----4--4-----|
Ab|-----------------------|------------------------|
Eb|----2-------2-------2--|-----2-------2-------2--|

Gb|-----------------------|------------------------|
Db|--4----4--4----4--4----|--4----4--4----4--4-----|
Ab|-----------------------|------------------------|
Eb|----2-------2-------2--|-----2-------2-------2--|

Gb|-----------------------|------------------------|
Db|--4----4--4----4--4----|--4----4--4----4--4-----|
Ab|-----------------------|------------------------|
Eb|----2-------2-------2--|-----2-------2-------2--|

Gb|-----------------------|------------------------|
Db|--4----4--4----4--4----|--4----4--4----4--4-----|
Ab|-----------------------|------------------------|
Eb|----2-------2-------2--|-----2-------2-------2--|

Preverso 1

Come wit it now! 

                  0:34
Gb|-------------|-------x-x-------x-x-x-x-x---------x-x-------x-x-x-x-x-x--|
Db|--Guitarra---|-------x-x-------x-x-x-x-x---------x-x-------x-x-x-x-x-x--|
Ab|--Solamente--|-------x-x-------x-x-x-x-x---------x-x-------x-x-x-x-x-x--|
Eb|-------------|--2--2-x-x-2--2--x-x-x-x-x-0--2--2-x-x-2--2--x-x-x-x-x-x--|

Come wit it now!

Gb|----------x-x-------x-x-x-x-x---------x-x---------------|
Db|----------x-x-------x-x-x-x-x---------x-x---------------|
Ab|----------x-x-------x-x-x-x-x---------x-x---------------|
Eb|--0--2--2-x-x-2--2--x-x-x-x-x-0--2--2-x-x-2--2--0--2-0--|

Verso 1

The microphone explodes, shattering the molds 
Either drop tha hits like de la O or get tha fuck off tha commode 
Wit tha sure shot, sure ta make tha bodies drop 
Drop an don't copy yo, don't call this a co-opt 

Gb|------------------------------|------------------------------|
Db|------------------------------|------------------------------|
Ab|-------0--2-0-----------------|-------0--2-0-----------------|
Eb|--0-2----------0-2--2-0--0-1--|--0-2----------0-2--2-0--0-1--|

Terror rains drenchin', quenchin' tha thirst of tha power dons 
That five sided fist-a-gon 
Tha rotten sore on tha face of mother earth gets bigger 
Tha triggers cold empty ya purse 

Gb|------------------------------|------------------------------|
Db|------------------------------|------------------------------|
Ab|-------0--2-0-----------------|-------0--2-0-----------------|
Eb|--0-2----------0-2--2-0--0-1--|--0-2----------0-2--2-0--0-1--|

Coro 1

Rally round tha family! With a pocket full of shells 

Gb|------------------------|---------------------------|
Db|--5-4-------------------|--5-4----------------------|
Ab|------------------------|---------------------------|
Eb|------2--x-2--0-2-2--2--|------2--x-2--2-2-2-2-0-2--|

They rally round tha family! With a pocket full of shells 

Gb|------------------------|---------------------------|
Db|--5-4-------------------|--5-4----------------------|
Ab|------------------------|---------------------------|
Eb|------2--x-2--0-2-2--2--|------2--x-2--2-2-2-2-0-2--|

They rally round tha family! With a pocket full of shells 

Gb|------------------------|---------------------------|
Db|--5-4-------------------|--5-4----------------------|
Ab|------------------------|---------------------------|
Eb|------2--x-2--0-2-2--2--|------2--x-2--2-2-2-2-0-2--|

They rally round tha family! With a pocket full of shells 

Gb|------------------------|---------------------------|
Db|--5-4-------------------|--5-4----------------------|
Ab|------------------------|---------------------------|
Eb|------2--x-2--0-2-2--2--|------2--x-2--2-2-2-2-0-2--|

Verso 2

Weapons not food, not homes, not shoes 
Not need, just feed the war cannibal animal 
I walk tha corner to tha rubble that used to be a library 
Line up to tha mind cemetary now 

Gb|------------------------------|------------------------------|
Db|------------------------------|------------------------------|
Ab|-------0--2-0-----------------|-------0--2-0-----------------|
Eb|--0-2----------0-2--2-0--0-1--|--0-2----------0-2--2-0--0-1--|

What we don't know keeps tha contracts alive an movin' 
They don't gotta burn tha books they just remove 'em 
While arms warehouses fill as quick as tha cells 
Rally round tha family, pockets full of shells 

Gb|------------------------------|------------------------------|
Db|------------------------------|------------------------------|
Ab|-------0--2-0-----------------|-------0--2-0-----------------|
Eb|--0-2----------0-2--2-0--0-1--|--0-2----------0-2--2-0--0-1--|

Coro 2

Rally round tha family! With a pocket full of shells 

Gb|------------------------|---------------------------|
Db|--5-4-------------------|--5-4----------------------|
Ab|------------------------|---------------------------|
Eb|------2--x-2--0-2-2--2--|------2--x-2--2-2-2-2-0-2--|

They rally round tha family! With a pocket full of shells 

Gb|------------------------|---------------------------|
Db|--5-4-------------------|--5-4----------------------|
Ab|------------------------|---------------------------|
Eb|------2--x-2--0-2-2--2--|------2--x-2--2-2-2-2-0-2--|

They rally round tha family! With a pocket full of shells 
They rally round tha family! With a pocket full of shells 

Gb|------------------------|---------------------------|
Db|--5-4-------------------|--5-4----------------------|
Ab|------------------------|---------------------------|
Eb|------2--x-2--0-2-2--2--|------2--x-2--2-2-2-2-0-2--|

They rally round tha family! With a pocket full of shells 

Gb|------------------------|---------------------------|
Db|--5-4-------------------|--5-4----------------------|
Ab|------------------------|---------------------------|
Eb|------2--x-2--0-2-2--2--|------2--x-2--2-2-2-2-0-2--|

Interludio

Gb|-------------------------|-----------------------------|
Db|------------9p7h9---7----|---------9p-7----------------|
Ab|-------7/9--------9---0--|---------------9--7p5---7----|
Eb|--7-7--------------------|----7-7---------------7---0--|

Bulls on parade 

Gb|------------------------|---------14--16-16-16-16---------------|
Db|------------------------|---------------------------------------|
Ab|-------7h9-9-7h9-9-9-9--|-------------------------12--14-14-14--|
Eb|--7-7-------------------|----7-7--------------------------------|

Solo de Guitarra

Ah!

Gb|------------------------------|------------------------------|
Db|------------------------------|------------------------------|
Ab|-------0--2-0-----------------|-------0--2-0-----------------|
Eb|--0-2----------0-2--2-0--0-1--|--0-2----------0-2--2-0--0-1--|

Gb|------------------------------|------------------------------|
Db|------------------------------|------------------------------|
Ab|-------0--2-0-----------------|-------0--2-0-----------------|
Eb|--0-2----------0-2--2-0--0-1--|--0-2----------0-2--2-0--0-1--|

Preverso 2

Come wit it now! 

                  3:04
Gb|-------------|-------x-x-------x-x-x-x-x---------x-x-------x-x-x-x-x-x--|
Db|--Guitarra---|-------x-x-------x-x-x-x-x---------x-x-------x-x-x-x-x-x--|
Ab|--Solamente--|-------x-x-------x-x-x-x-x---------x-x-------x-x-x-x-x-x--|
Eb|-------------|--2--2-x-x-2--2--x-x-x-x-x-0--2--2-x-x-2--2--x-x-x-x-x-x--|

Come wit it now!

Gb|----------x-x-------x-x-x-x-x---------x-x-------x-x-x-x-x-x--|
Db|----------x-x-------x-x-x-x-x---------x-x-------x-x-x-x-x-x--|
Ab|----------x-x-------x-x-x-x-x---------x-x-------x-x-x-x-x-x--|
Eb|--0--2--2-x-x-2--2--x-x-x-x-x-0--2--2-x-x-2--2--x-x-x-x-x-x--|

Bulls on parade! 

Gb|----------x-x-------x-x-x-x-x---------x-x-------x-x-x-x-x-x--|
Db|----------x-x-------x-x-x-x-x---------x-x-------x-x-x-x-x-x--|
Ab|----------x-x-------x-x-x-x-x---------x-x-------x-x-x-x-x-x--|
Eb|--0--2--2-x-x-2--2--x-x-x-x-x-0--2--2-x-x-2--2--x-x-x-x-x-x--|

Bulls on parade! 

Gb|----------x-x-------x-x-x-x-x---------x-x-------x-x-x-x-x-x--|
Db|----------x-x-------x-x-x-x-x---------x-x-------x-x-x-x-x-x--|
Ab|----------x-x-------x-x-x-x-x---------x-x-------x-x-x-x-x-x--|
Eb|--0--2--2-x-x-2--2--x-x-x-x-x-0--2--2-x-x-2--2--x-x-x-x-x-x--|

Final

Bulls on parade! 

Gb|-----------------------|------------------------|
Db|--4----4--4----4--4----|--4----4--4----4--4-----|
Ab|-----------------------|------------------------|
Eb|----2-------2-------2--|-----2-------2-------2--|

Bulls on parade! 

Gb|-----------------------|------------------------|
Db|--4----4--4----4--4----|--4----4--4----4--4-----|
Ab|-----------------------|------------------------|
Eb|----2-------2-------2--|-----2-------2-------2--|

Bulls on parade! 

Gb|-----------------------|------------------------|
Db|--4----4--4----4--4----|--4----4--4----4--4-----|
Ab|-----------------------|------------------------|
Eb|----2-------2-------2--|-----2-------2-------2--|

Gb|-----------------------|------------------------|
Db|--4----4--4----4--4----|--4----4--4----4--4-----|
Ab|-----------------------|------------------------|
Eb|----2-------2-------2--|-----2-------2-------2--|

            
            
Suggest correction
Creating personal tab
Creating personal tab
You can edit any tab online and save it as your Personal.

You can edit, replace or remove any tab part or add personal notes – all changes will be seen only by you.

Personal tabs can be accessed anytime from any device, even offline.
Learn more »
comments
print report bad tab
guest
You may want to rate the tab now too:
select rating
Wanna post a correction for this tab? Suggest correction