Oops, an error
Loading. Please wait.

Bulls On Parade Tab

version 6
194,996 views 394 this week
7 commentsread comments
1 2 3 4 5
excellent!
x 74
add to favorites
launch autoscroll
font size
0
reset
how to read this tab
guitar tuner
Tab Pro tools
  • play this tab
  • loop segment
  • change instrument
  • show fretboard
  • metronome
×
Best way to learn
"Bulls On Parade"
Autoscroll
slow
fast
+/-
esc
set tempo
stop
Contributor
Bulls On Parade

--

On the album version its definately in half step down tuning, although live he plays it 
standard.

       S E.  S S S E.  S S S E.   7x  S E.  S S S E.  S S S E  S
Eb||------------------------------||-----------------------------|
Bb||------------------------------||-----------------------------|
Gb||*----------------------------*||-----------------------------|
Db||*--4-----4---4-----4---4-----*||--4-----4---4-----4---4------|
Ab||------------------------------||-----------------------------|
Eb||-----2---------2---------2----||----2---------2---------2----|

This part is played with wah, as you all know:

     E  E  S S E  E  S S S S S S      E  E  S S E  E  S S S S S S  3x
Eb|------------------------------||--------------------------------||
Bb|------------------------------||--------------------------------||
Gb|------------------------------||*------------------------------*||
Db|--4--4--x-x-4--4--x-x-x-x-x-x-||*--4--4--x-x-4--4--x-x-x-x-x-x-*||
Ab|--4--4--x-x-4--4--x-x-x-x-x-x-||---4--4--x-x-4--4--x-x-x-x-x-x--||
Eb|--2--2--x-x-2--2--x-x-x-x-x-x-||---2--2--x-x-2--2--x-x-x-x-x-x--||


      E  E  S S E  E  S S S S S S   3x  E  E  S S E  E  S S S S S S
Eb||--------------------------------||------------------------------|
Bb||--------------------------------||------------------------------|
Gb||*------------------------------*||------------------------------|
Db||*--4--4--x-x-4--4--x-x-x-x-x-x-*||--4--4--x-x-4--4--x-x-x-x-x-x-|
Ab||---4--4--x-x-4--4--x-x-x-x-x-x--||--4--4--x-x-4--4--x-x-x-x-x-x-|
Eb||---2--2--x-x-2--2--x-x-x-x-x-x--||--2--2--x-x-2--2--x-x-x-x-x-x-|


VERSE:

     E  Q    Q.      S S S S    H        S E.  S E.
Eb|--------------------------|-----------------------|
Bb|--------------------------|-----------------------|
Gb|--------------------------|-----------------------|
Db|--------------------------|-----------------------|
Ab|----------0-------2-0-----|-----------------------|
Eb|--0--2----------------0-2-|-(2)-------2-0---0-1---|


     E  Q    Q.      S S S S    H        S E.  S E.     3x
Eb||---------------------------|------------------------||
Bb||---------------------------|------------------------||
Gb||*--------------------------|-----------------------*||
Db||*--------------------------|-----------------------*||
Ab||-----------0-------2-0-----|------------------------||
Eb||---0--2----------------0-2-|-(2)-------2-0---0-1----||

CHORUS:

       S S S S S E.  S S S S S E.     S S S S S E.  S S S S S E.   4x
Eb||-------------------------------|-------------------------------||
Bb||-------------------------------|-------------------------------||
Gb||*--2---------------------------|--2---------------------------*||
Db||*--x-4-4---x-4-----4-4---x-4---|--x-4-4---x-4---4-4-4-4---4---*||
Ab||---x-x-x---x-x-----x-x---x-x---|--x-x-x---x-x---x-x-x-x---x----||
Eb||---2-2-2---x-2---0-2-2---x-2---|--2-2-2---x-2---2-2-2-2-0-2----||

VERSE:

     E  Q    Q.      S S S S    H        S E.  S E.
Eb|--------------------------|-----------------------|
Bb|--------------------------|-----------------------|
Gb|--------------------------|-----------------------|
Db|--------------------------|-----------------------|
Ab|----------0-------2-0-----|-----------------------|
Eb|--0--2----------------0-2-|-(2)-------2-0---0-1---|


     E  Q    Q.      S S S S    H        S E.  S E.     3x
Eb||---------------------------|------------------------||
Bb||---------------------------|------------------------||
Gb||*--------------------------|-----------------------*||
Db||*--------------------------|-----------------------*||
Ab||-----------0-------2-0-----|------------------------||
Eb||---0--2----------------0-2-|-(2)-------2-0---0-1----||

CHORUS:

       S S S S S E.  S S S S S E.     S S S S S E.  S S S S S E.   4x
Eb||-------------------------------|-------------------------------||
Bb||-------------------------------|-------------------------------||
Gb||*--2---------------------------|--2---------------------------*||
Db||*--x-4-4---x-4-----4-4---x-4---|--x-4-4---x-4---4-4-4-4---4---*||
Ab||---x-x-x---x-x-----x-x---x-x---|--x-x-x---x-x---x-x-x-x---x----||
Eb||---2-2-2---x-2---0-2-2---x-2---|--2-2-2---x-2---2-2-2-2-0-2----||

Here's the little wah riff before the solo

   E  E  S S E  E  S S S S S S  4x
Eb||--------------------------------||
Bb||--------------------------------||
Gb||*------------------------------*||
Db||*--9--9--x-x-9--9--x-x-x-x-x-x-*||
Ab||---9--9--x-x-9--9--x-x-x-x-x-x--||
Eb||---7--7--x-x-7--7--x-x-x-x-x-x--||

On the solo you just rub the strings with your left hand and toggle switch with your 
hand. The wah is also used on the solo.


     E  E  S S E  E  S S S S S S      E  E  S S E  E  S S S S S S  3x
Eb|------------------------------||--------------------------------||
Bb|------------------------------||--------------------------------||
Gb|------------------------------||*------------------------------*||
Db|--4--4--x-x-4--4--x-x-x-x-x-x-||*--4--4--x-x-4--4--x-x-x-x-x-x-*||
Ab|--4--4--x-x-4--4--x-x-x-x-x-x-||---4--4--x-x-4--4--x-x-x-x-x-x--||
Eb|--2--2--x-x-2--2--x-x-x-x-x-x-||---2--2--x-x-2--2--x-x-x-x-x-x--||


      E  E  S S E  E  S S S S S S   4x   E  E  S S E  E  S S S S S S  4x
Eb||--------------------------------||--------------------------------||
Bb||--------------------------------||--------------------------------||
Gb||*------------------------------*||*------------------------------*||
Db||*--4--4--x-x-4--4--x-x-x-x-x-x-*||*--4--4--x-x-4--4--x-x-x-x-x-x-*||
Ab||---4--4--x-x-4--4--x-x-x-x-x-x--||---4--4--x-x-4--4--x-x-x-x-x-x--||
Eb||---2--2--x-x-2--2--x-x-x-x-x-x--||---2--2--x-x-2--2--x-x-x-x-x-x--||


       S E.  S S S E.  S S S E.   7x  S E.  S S S E.  S S S E  S
Eb||------------------------------||-----------------------------|
Bb||------------------------------||-----------------------------|
Gb||*----------------------------*||-----------------------------|
Db||*--4-----4---4-----4---4-----*||--4-----4---4-----4---4------|
Ab||------------------------------||-----------------------------|
Eb||-----2---------2---------2----||----2---------2---------2----|

Oh, and i definately know this song is played in standard tuning live, this is just the 
version!

Duration Legend
---------------
W - whole
H - half
Q - quarter
E - 8th
S - 16th
T - 32nd
X - 64th
. - note dotted
|-n-|  - n-tuplets
comments
print report bad tab
7 comments total. Showing first comments.
+2 reply
hippi901 wrote on July 7 2009, 04:02 pm

lol they decided to edit this then... ok n1 haha

+9 reply
bucketheadShred wrote on July 10 2009, 05:58 pm

I dont know why this tab took so long its not that hard.
Great job 5 stars.

+5 reply
never_never_man wrote on March 4 2010, 01:32 pm

Great tab!! You leave the wah-wah open (toe down) and he uses an EQ as a boost for the scratching. Go on youtube and search Tom Morello for more info on exactly how he does it. Again great tab!!

I want to post or [tab]
guest
You may want to rate the tab now too:
select rating
Please do not post tabs as comments. Select "correction" instead!