Oops, an error
Loading. Please wait.

Bulls On Parade tab

version 8
version 8

Whole song

Video

355 views 6 this week
no commentswrite comment
1 2 3 4 5
3 more votes to show rating
add to favorites
×
Save as Personal and add changes to this tab that will be seen only by you. Learn more ›
×
You can save this tab as Personal to edit and correct it or add notes. All changes will be seen only by you. Learn more »
launch autoscroll
font size
0
reset
how to read this tab
guitar tuner
backing track
0:00
0:00
edit
Autoscroll
slow
fast
+/-
esc
set tempo
stop
Author
Difficulty
About this tab version
Complete explanation of how to play the song solo. Was this info helpful? Yes No
[Intro]

e|------------------|
B|------------------|
G|------------------|
D|-4---4-4---4-4----|
A|------------------|
E|---2-----2-----2--| x8


[Fill]

e|--------------------|
B|--------------------|
G|--------------------|
D|-4-4-xx-4-4-xxxxxx--| Put the wah wah pedal down on the down strums
A|-4-4-xx-4-4-xxxxxx--| and up on the up strums like so...
E|-2-2-xx-2-2-xxxxxx--| x8
   v v v^ v v v^v^v^


[Verse]

e|------------------------|
B|------------------------|
G|------------------------|
D|------------------------|
A|-----0-2h0--------------|
E|-0-2-------0-2-2-0-0-1--| x4


[Chorus]

e|-----------------------------------------------|
B|-----------------------------------------------|
G|-----------------------------------------------|
D|-4---4-x-4--4---4-x-4--4---4-x-4--4---4-4-4----|
A|-4---4-x-4--4---4-x-4--4---4-x-4--4---4-4-4----|
E|-0h2-2-x-2--0h2-2-x-2--0h2-2-x-2--3p2-2-2-0h2--| x4


[Verse]

e|------------------------|
B|------------------------|
G|------------------------|
D|------------------------|
A|-----0-2h0--------------|
E|-0-2-------0-2-2-0-0-1--| x4


[Chorus]

e|-----------------------------------------------|
B|-----------------------------------------------|
G|-----------------------------------------------|
D|-4---4-x-4--4---4-x-4--4---4-x-4--4---4-4-4----|
A|-4---4-x-4--4---4-x-4--4---4-x-4--4---4-4-4----|
E|-0h2-2-x-2--0h2-2-x-2--0h2-2-x-2--3p2-2-2-0h2--| x4



[Fill]

e|--------------------|
B|--------------------|
G|--------------------|
D|-4-4-xx-4-4-xxxxxx--| 
A|-4-4-xx-4-4-xxxxxx--| 
E|-2-2-xx-2-2-xxxxxx--| x4
   v v v^ v v v^v^v^

[Solo]

For the solo, Tom uses his strumming hand to change the pickups on his special Morello Guitar and uses his 
fret hand to rub on the strings giving it a scratching sound. He plays this in rythm and brings you the solo.

PS: He also puts his second tone dial on 0 and keeps his first on 10.

[Fill]

e|--------------------|
B|--------------------|
G|--------------------|
D|-4-4-xx-4-4-xxxxxx--| 
A|-4-4-xx-4-4-xxxxxx--| 
E|-2-2-xx-2-2-xxxxxx--| x4
   v v v^ v v v^v^v^

[Outro]

e|------------------|
B|------------------|
G|------------------|
D|-4---4-4---4-4----|
A|------------------|
E|---2-----2-----2--| x8



************************************

| x  Dead note
| h  Hammer-on
| p  Pull-off

************************************
Suggest correction
Creating personal tab
Creating personal tab
You can edit any tab online and save it as your Personal.

You can edit, replace or remove any tab part or add personal notes – all changes will be seen only by you.

Personal tabs can be accessed anytime from any device, even offline.
Learn more »
Give kudos to tab author, rate the tab!
1 2 3 4 5
comments
print report bad tab
guest
You may want to rate the tab now too:
select rating
Wanna post a correction for this tab? Suggest correction