Oops, an error
Loading. Please wait.

Calm Like A Bomb Tab

version 2
version 2

Whole song

Interactive

3,224 views 3 this week
5 commentsread comments
1 2 3 4 5
accurate
x 4
add to favorites
launch autoscroll
font size
0
reset
how to read this tab
guitar tuner
Tab Pro tools
  • play this tab
  • loop segment
  • change instrument
  • show fretboard
  • metronome
×
Best way to learn
"Calm Like A Bomb"
Autoscroll
slow
fast
+/-
esc
set tempo
stop
Rage Against the Machine--Calm Like A Bomb.
Tabbed by john victor--shilohbritt@aol.com.
  
ok people----if you felt the funk blast when hearing this little ditty, learn these tabs its all 100% correct. 
the guitar is in Drop A tuning (yes down 6 1/2 steps from E). You gott have a whammy pedal for this.
set those XP100's to patch 14 (up two octaves)
------------ while tremelo picking the B note push the 
--12 (trem.) pedal up untill fully compressed at the
------------ riff. im not gonna list the incriments
------------ in which it rises----you dont need to 
------------ duplicate the song THAT much.
------------

ok that riff that sounds like a bass
is this (remember---its in drop A)
---------------------------------------- this riff 
---------------------------------------- even the 1 
---------------------------------------- & 1/2 step
---------------------------------------- bend is 
---------------------------------------- simple.
-2--2--0---2---2--0--2(bu-1 1/2 steps---

ok--grab out those wah wah's 
ok play this with wah fully compressed and whammy pedal OFF
------------------------
------------------------
------------------------
------------------------
--2-2-2-2-2-2-2-2-2-2-2- (all in even 32 note beat)
------------------------


OK NOW... that heavy korn style riff
-------------------------------------------
-------------------------------------------
-------------------------------------------(pretty
------------------------------------------- damn
-0h2-x-x-x-x-x-x-x-x(etc.)-0-2p0----------- simple)
-0h2-x-x-x-x-x-x-x-x(etc.)-0-2p0--2--2---5-

Ok the solo--now this is the part where there are 100 adaptations--my fave involves a sucession of rapid hammers and pulls (shredding)
so you can improvise or create a simple version for your style (its in the key of G--[2 sharps])
-----------------------------  then..------------
-12p0-0h12-12p0-0h12(etc.)---  -12-12-8--12-12-7-
-----------------------------  ------------------
-----------------------------  ------------------
-----------------------------  ------------------
-----------------------------  ------------------
OK NOW USE PATCH 13 (8va) TO CONSTANTLY RISE 6 STEPS THEN DESCEND----ALL WITH THOSE BASIC RIFFS.
im not gonaa transcribe the whole damn solo--i think i saw in a mag that the official tab book for TheBattleOfLosAngeles just came out so check it out if you want NOTE FOR NOTE shit. but i would go by this...after its FREE.
OK ---THATS THAT------yes i am a walking dictionary of tabs---expecially for rage so email if ya need something----i love the guitar i...i wont mind 
:: Ultimate Guitar Archive :: 
http://www.ultimate-guitar.com 



comments
print report bad tab
5 comments total. Showing first comments.
0 reply
mrcran wrote on May 3 2002, 12:00 am

You have some of it right but you forgot to add in the chorus and a small part in the pre-chorus.

A--0-2-0-----------
A--0-2-0-2-2-2-2-5-

Note:its drop a-tuning

0 reply
guitarzan wrote on May 7 2002, 12:00 am

don't email this retard for ANYTHING, he can't tab unless he can read em out of a book. Most of his tabs are WRONG

0 reply
yojimbo_ibanez wrote on July 12 2005, 12:00 am

Oi!! erm matey the song is not in drop-a tuning...thats a bass guitar in the intro..tom morello plays drop-b tuning in some songs but drop-a you retard VITUN CEEPEE!!

I want to post or [tab]
guest
You may want to rate the tab now too:
select rating
Please do not post tabs as comments. Select "correction" instead!