Oops, an error
Loading. Please wait.

Darkness bass

version 1
version 1

Whole song

2,045 views 3 this week
3 commentsread comments
1 2 3 4 5
2 more votes to show rating
add to favorites
×
Save as Personal and add changes to this tab that will be seen only by you. Learn more ›
×
You can save this tab as Personal to edit and correct it or add notes. All changes will be seen only by you. Learn more »
launch autoscroll
font size
0
reset
guitar tuner
edit
Autoscroll
slow
fast
+/-
esc
set tempo
stop
Darkness by Rage Against The Machine 

from the Crow Soundtrack album. Forgive me, I'm lazy.  I've thrown together the different riffs, in the 
_general_ order that they are played in the song.  The tail part I have here 
is not right, I think.  I can't tell what notes timmy plays...he plays them 
so fast!  Anyone has this song figured out properly, lemme know!  The verse 
part is also wrong, I think...but it sounds okay w/ the song.  It's not exact 
but it's close.  Ad lib at will! R.AllenCanterbury.   intro part 

     riff 1                  tail 

G:-----------------------|-------------| 
D:------------7--7-------|-------------| 
A:---7--9--10------10-9--|--10-9-7-----| 
E:-----------------------|---------10--| 
     verse                                 FAST! 

G:-------------------------------------------------|---------| 
D:*-----------------------------------------------*|-intro---| 
A:*--5--7-7--7-8-7--7-7-5-7--5-7-7--7-8-7--77777--*|-again---| 
E:-------------------------------------------------|---------| 

    Solo bit... 

G:---------------|------|--------------|-----------|--------|------| 
D:---riff-1-(2x)-|-tail-|--riff-1-(2x)-|--9---9-9--|-riff1--|-tail-| 
A:---------------|------|--------------|-----------|--------|------| 
E:---------------|------|--------------|-----------|--------|------| 
G:---------|-------------|-------------|-------------|------------| 
D:-riff-1--|-------------|-riff-1-(2x)-|-------------|-verse-part-| 
A:---------|-3--5--------|-------------|-------------|--?-times---| 
E:---------|-------3--0--|-------------|--2-2-2-2-2--|------------| 


G:--------------|--------------------| 
D:-riff-1-(3x---|----------7--11--7--| 
A:--one-time-w/-|--7--9-10-----------| 
E:---tail-------|--------------------|

            
            
Suggest correction
Creating personal tab
Creating personal tab
You can edit any tab online and save it as your Personal.

You can edit, replace or remove any tab part or add personal notes – all changes will be seen only by you.

Personal tabs can be accessed anytime from any device, even offline.
Learn more »
Give kudos to tab author, rate the tab!
1 2 3 4 5
comments
print report bad tab
3 comments total.
0 reply
tomisalive 71 Jul 13, 2004 08:00 PM

hey the chorus sounds rite, the verse im not sure about coz its kinda hard to make out, but i like the tabbing and thanks for doing it

0 reply
PeopleOfThaSun3 31 Jul 02, 2007 03:39 PM

Riff 1 goes like this:
G:--------------------
D:------------7-------
A:---7--9--10---10-9--
E:--------------------

not much of a difference, but it sounds better

0 reply
maxrage9 10 Sep 01, 2013 09:31 PM

i like to play the intro like this:
G:--------------------
D:--------------------
A:--------------------
D:0h2-0h4-0h5-0h7-5-4-
I maybe wrong though but i like to play it that way!

guest
Wanna post a correction for this tab? Suggest correction