Oops, an error
Loading. Please wait.

Down Rodeo Bass Tab

version 1
version 1

Whole song

Interactive

11,830 views 27 this week
7 commentsread comments
1 2 3 4 5
x 9
add to favorites
launch autoscroll
font size
0
reset
guitar tuner
×
Best way to learn
"Down Rodeo"
Autoscroll
slow
fast
+/-
esc
set tempo
stop
     
   This a correction of the othber tab, now this is definetely 100% right, so
   Just play! And please do email me at mike@smeadows.plus.com if u have any
   questions or u just want to talk!

        g:----------------------|----------------
        d:----------------------|----------------
Intro   a:----------------------|-77777777777-7--
        e:-999999999999999999999|-------------0--

        g:-----------------------    :-----------------
        d:-----------------------    :-----------------
 Chorus a:----------------------- x4 :----------------- x9
        e:-02--20202320-02-xxx-xx    :-02-x-xx--02-x-xx


        g:-----------------------------------------------------------
        d:-----------------------------------------------------------
 Verse  a:-----12/171717171717----12/171717171717-----12/171717171717
        e:-02-------------------2------------------02----------------

        g:---------------------
        d:---------------------
        a:------12/171717171717 x4
        e:-0--2----------------

     
        g:------------------
        d:------------------
        a:------------------     Then bak to chorus
        e:-55555555555555-0-

Then on the solo, just play the verse but occasionally it will vary to:

       g:-----12-12--12-12--12
       d:----------12-----12--
       a:---------------------   Then go back to the verse, and then chorus
       e:-0-2-----------------   

     
       g:-----------------|---------------------------
       d:-----------------|-------------------33333333
       a:-555555555555555-|----------55555535-55555555 x6
       e:-----------------|-00000000------------------

       g:-----------------------------------12
       d:--------------12-10--------------12-- 
       a:------------------------------------- x2, but on the last time, do the 
       e:-0-let-it-ring------0-let-it-ring----     same as you did on the 1st 
                                                   time

Anywhere there it is, really fun to play, so just go and play it now!
And email me, oh yeh and please Rate me!
Suggest correction
comments
print report bad tab
7 comments total. Showing first comments.
0 reply
theantonym 101 Feb 08, 2008 04:28 PM

nice. I don't find any glaring errors. 5

+2 reply
lodgey 10 Sep 07, 2008 10:43 AM

I thought the verse sounded a bit more like this:

g:-----7/12121212121212---7/12121212121212-----7/12121212121212-
d:--------------------------------------------------------------
a:--------------------------------------------------------------
e:-02-------------------02------------------02------------------

But a good tab though

+1 reply
Thenameless0628 10 Feb 16, 2009 05:23 PM

I think the slide is actually on the D string

guest
You may want to rate the tab now too:
select rating
Wanna post a correction for this tab? Suggest correction