Oops, an error
Loading. Please wait.

Down Rodeo Tab

version 1
version 1

Whole song

Interactive

46,811 views 57 this week
21 commentsread comments
1 2 3 4 5
x 17
add to favorites
launch autoscroll
font size
0
reset
how to read this tab
guitar tuner
×
Best way to learn
"Down Rodeo"
Autoscroll
slow
fast
+/-
esc
set tempo
stop
[Intro]  
e|--9---9---9------------------------------------------------------------|        
B|--9---9---9------------------------------------------------------------|
G|--13--13--13---------------------------------------------------------4-|
D|--11--11--11------------------------------------------------------x--2-|
A|--9---9---9-------------------------------------------------------x--2-|
E|--9---9---9-------------------------------------------------------x--0-|
(C#sus4 is played I think 62 times. Then slide down and strum an E5.)

[Riff 2]
e|-------------------------------------------------------------------------------|
B|-------------------------------------------------------------------------------|
G|--3(b1/2)--------------------------------------------3(b1/2)-------------------| (x3)
D|----------4--------------------------------------------------------------------|
A|-------------------------------------------------------------------------------|
E|-------------2--0--0--2--0--2--3--2--0--0--2--x--x-----------x--x--x---x---x--x|
 
[Riff 3]
"Yeah, I'm rollin' down rodeo with a shotgun..."
e|-------------------------------------------------------------------------------|
B|-------------------------------------------------------------------------------|
G|-------------------------------------------------------------------------------|
D|-------------------------------------------------------------------------------|
A|-------------------------------------------------------------------------------|
E|--0--2--x--x-x--0--2--x--x-x--0--2--x--x-x--0--2--x--x--*-*-*-*-*-*-*-*-*-*-*--|
                                                              (* 32 times)

[Riff 4]
"Bangin in this...
e|----------------------------------------|
B|----------------------------------------|
G|----------------------------------------|
D|--14---16-------------14---16-----------|
A|------------14---16-------------14---16-|
E|----------------------------------------|

[Riff 5]
(light distortion)
e|--0--0--0-------------|
B|--0--0--0-------------|
G|--2--2--2----------4--|
D|--0--0--0-------x--2--|
A|--x--x--x-------x--2--|
E|--3--3--3-------x--0--|
(Gmaj11 is played about 16 times,then slide down and strum the E5 again.) 

[Riff 2]
e|-------------------------------------------------------------------------------|
B|-------------------------------------------------------------------------------|
G|--3(b1/2)--------------------------------------------3(b1/2)-------------------| (x3)
D|----------4--------------------------------------------------------------------|
A|-------------------------------------------------------------------------------|
E|-------------2--0--0--2--0--2--3--2--0--0--2--x--x-----------x--x--x---x---x--x|

[Riff 3]
e|-------------------------------------------------------------------------------|
B|-------------------------------------------------------------------------------|
G|-------------------------------------------------------------------------------|
D|-------------------------------------------------------------------------------|
A|-------------------------------------------------------------------------------|
E|--0--2--x--x-x--0--2--x--x-x--0--2--x--x-x--0--2--x--x--*-*-*-*-*-*-*-*-*-*-*--|
                                                              (* 32 times)

[Solo]  
(with wah-wah)
e|-------------------------------------------------------------------------------
B|-------------------------------------------------------------------------------
G|-------------------------------------------------------------------------------
D|-------------------------------------------------------------------------------
A|-----------------------------------------14------------------14---12---14---12-
E|--14---12---14---12---14--12---14---12--------12---14---10---14---12---14---12-

e|-------------------------------------------------------------------------------
B|-------------------------------------------------------------------------------
G|-------------------------------------------------------------------------------
D|-------------------------------------------------------------------------------
A|--14---------------------------------------------------------------------------
E|--14--12-12-12-12-12-12-12-12-12-12-12-12-12-12-12-12-12---14-14-14-12---12-14-

e|-------------------------------------------------------------------------------
B|-------------------------------------------------------------------------------
G|-------------------------------------------------------------------------------
D|-------------------------------------------------------------------------------
A|-------------------------------------------------------------------------------
E|--14-14-12---12-14-12---14-14-14-12---12-14-14-14-12---12-14-12---14-14-14-12--

e|-------------------------------------------------------------------------------
B|-------------------------------------------------------------------------------
G|-------------------------------------------------------------------------------
D|-------------------------------------------------------------------------------
A|-------------------------------------------------------------------------------
E|--12-14-14-14-12---12-14-12-12---12-12-12-12-12-12-12-12-12-12-12-12-----------

[Riff 4]
"Witness to the sickest shot while suckas get romantic..."
e|----------------------------------------|
B|----------------------------------------|
G|----------------------------------------|
D|--14---16-------------14---16-----------|
A|------------14---16-------------14---16-|
E|----------------------------------------|

[Riff 5]
(light distortion)
e|--0--0--0-------------|
B|--0--0--0-------------|
G|--2--2--2----------4--|
D|--0--0--0-------x--2--|
A|--x--x--x-------x--2--|
E|--3--3--3-------x--0--|
(Gmaj11 is played about 16 times,then slide down and strum the E5 again.) 

[Riff 2]
e|-------------------------------------------------------------------------------|
B|-------------------------------------------------------------------------------|
G|--3(b1/2)--------------------------------------------3(b1/2)-------------------|
D|----------4--------------------------------------------------------------------|
A|-------------------------------------------------------------------------------|
E|-------------2--0--0--2--0--2--3--2--0--0--2--x--x-----------x--x--x---x---x--x|

[Riff 3]
e|-------------------------------------------------------------------------------|
B|-------------------------------------------------------------------------------|
G|-------------------------------------------------------------------------------|
D|-------------------------------------------------------------------------------|
A|-------------------------------------------------------------------------------|
E|--0--2--x--x-x--0--2--x--x-x--0--2--x--x-x--0--2--x--x--*-*-*-*-*-*-*-*-*-*-*--|
                                                              (* 32 times)

Dsus2/A                  
e|---------------------------0--0--0--0--0--0--0--0---|
B|---------------------------3--3--3--3--3--3--3--3---|
G|---------------------------2--2--2--2--2--2--2--2---|
D|--0--0--0--0--0--0--0--0---0--0--0--0--0--0--0--0---|
A|---------------------------0--0--0--0--0--0--0--0---|
E|----------------------------------------------------|
"The rungs torn from the ladder..."

               "Just a quiet peaceful dance!"
(The E is actually played 8 times followed by the Dsus2/A 16 times.The rhythm is
easy to figure out.  If you can't do it, put down the guitar and try tennis or something.)

[Solo 2]
e|--------------------------------------------|
B|--------------------------------------------|
G|--12-12-x-x-12-12-12-12-x-x-12-12-12-12-x-x-|
D|--------------------------------------------| 
A|--------------------------------------------| (x2)
E|--------------------------------------------|
 "just a quiet peaceful dance.." (whisper)  

e|---------------|
B|---------------|
G|--\-----1------|
D|-----0--2------|
A|-----0--2------|
E|--------0------|
 "From the things you'll never have."


************************************

| x  Dead note
| /  Slide up
| *  Natural harmonic
| \  Slide down

************************************
Suggest correction
comments
print report bad tab
21 comments total. Showing first comments.
+1 reply
Kick Me 110 Apr 16, 2004 08:00 PM

Hey, awesome tab. Oh, and also yes, it is true that Tom is a guitar God.

0 reply
bigballz4u 10 Oct 01, 2004 08:00 PM

how the hell am i sposed to play that 6 string chord? I only got 5 fingers to a hand...

-2 reply
deviant 10 Nov 29, 2004 07:00 PM

you're a ***, bigballz4u.

guest
You may want to rate the tab now too:
select rating
Wanna post a correction for this tab? Suggest correction