Oops, an error
Loading. Please wait.

Evil Empire Bass Tab

version 2
version 2

Album

2,987 views 9 this week
no commentswrite comment
1 2 3 4 5
please rate
add to favorites
launch autoscroll
font size
0
reset
guitar tuner
Tab Pro tools
  • play this tab
  • loop segment
  • change instrument
  • show fretboard
  • metronome
Autoscroll
slow
fast
+/-
esc
set tempo
stop
Contributor
Album: Evil Empire
Artist: Rage Against The Machine
Tabbed by: BassPlayer275


Track 1:

Title: People Of The Sun
Artist: Rage Against The MAchine
Tuning: EADG

 PreVerse fill:  Verse:
G|-------------||----------------|--------------|
D|-------------||----------------|--------------|
A|-5h7p5-0-3h5-||-0--3--5--3--0--|-0--3--5--3---|
E|-------------||----------------|--------------|

 Chorus:
G|-----------------------------------|
D|------------------------------5~~--|
A|-----------------------------------|
E|-2h3-2h3-2h3-2h3-2h3-2h3-2h3~~~~~--|

 Verse2:
G|---------------------------------------------------|
D|---------------------------------------------------|
A|-0--------0----------5h7p5-0-3h5-0---------0-------|
E|---------------------------------------------------|



Track 2:

Title: Bulls On Parade
Artist: Rage Against The Machine
Tuning: Eb Ab Db Gb (live - played in standard)

  Intro:               Bridge part1:
Gb|-------------------||------------------------------|
Db|-4----4-4----4-4---||------------------------------|
Ab|-------------------||------------------------------|
Eb|---2------2------2-||-2--2--x-x--2--2--x-x-x-x-x-0-|

  Bridge part2:               Verse:
Gb|--------------------------||--------------------------------|
Db|--------------------------||--------------------------------|
Ab|--------------------------||-------0----2-0-----------------|
Eb|-2--2--x-x--2--2--0--2--0-||-0--2-----------0-2----2-0--0-1-|

  Chorus:
Gb|----------------------------------------------|
Db|-5-4-------------------5-4--------------------|
Ab|----------------------------------------------|
Eb|-----2--2---0-2-2--2-------2--2---2-2-2-2-0-2-|

  Solo:
Gb|---------------------------------|
Db|---------------------9-7-9---7---|
Ab|-2--2--x-x--2--2/7/9-------9---0-|
Eb|---------------------------------|

Gb|-----------------------------------|
Db|-------------------9p7-------------|
Ab|-2--2--x-x--2--2/------9-7p5---7---|
Eb|-----------------------------7---0-|

Gb|-----------------------------------|
Db|-----------------------------------|
Ab|-2--2--x-x--2--2--7h9-9--7h9-9-9-9-|
Eb|-----------------------------------|

Gb|------------------/14h16-16-16---------------|
Db|---------------------------------------------|
Ab|-2--2--x-x--2--2----------------/12h14-14-14-|
Eb|---------------------------------------------|



Track 3:

Title: Vietnow
Artist: Rage Against The Machine
Tuning: EADG

 Intro/Bridge:
G|-----------------------||-------------------------------------|
D|-----------------------||-------------------------------------|
A|-------0-0---------0-0-||-----------------------0-0-------0-0-|
E|-2--2--------2--2------||-2-2-2-2-2-2-2-2--2-2-------2-2------|

 Verse:             Chorus:             End:
G|-----------------||------------------||-----|    |-----|
D|-----------------||------------------||-----|    |-----|
A|-----------------||-9-9--------------||-9-9-| or |-----|
E|-0-2-2-0-2-2-2-2-||-----0-2-0-5-5^-0-||-----|    |-2-2-|

 Interlude:
G|------------||------------||--------------------|
D|------------||------------||--------------------|
A|-0-/9--3----||-3-/9--3----||-3-/9--9-7-9--9-7-9-|
E|----------2-||----------2-||--------------------|

G|------------||------------||--------------------|
D|------------||------------||--------------------|
A|-0-/9--3----||-3-/9--3----||-3-/9--9-7-9--9-7-9-|
E|----------0-||----------0-||--------------------|

 Fill:            End:
G|---------------||---------------------------||----------|
D|---------------||---------------------------||----------|
A|---------------||---------------------------||----------|
E|-x-3--x-2--x-3-||-0-2-2-0-2-2-2-2-x-x--x--x-||-x-2--x-3-|



Track 4:

Title: Revolver
Artist: Rage Against The Machine
Tuning: Drop-D (DADG)


 Intro/Bridge:
G|--------------------------|--------------------------|
D|------------------------3-|--------------------------|
A|-3-4-5---------3--5-3-5---|-3-4-5---------3--5-3-5---|
D|-------0-3--5-------------|-------0-3--5-----------0-|

G|------------------------------|--------------------------|
D|------------------------3h4p3-|--------------------------|
A|-3-4-5---------3--5-3-5-------|-3-4-5---------3--5-3-5---|
D|-------0-3--5-----------------|-------0-3--5-----------0-|

 Verse:
G|-------19-19-19-19-19-19-19-||------10--12--14-|
D|-------\__bend  slightly__/-||-----------------|
A|----------------------------||-----------------|
D|-0~~~~~~~-------------------||-0~~~~~~~--------|

 PreChorus:                    End1:     End2:
G|-----------------------------|---------|-----------|
D|-----------------------------|---------|-----------|
A|-5---------------------------|---------|-5555-5555-|
D|---0-3h5-0--0-3h5-0--0-3h5-0-|-0-3h5-0-|-----------|

 Chorus:                                  Breakdown:
G|-----------------------------|---------||-----------|
D|---------3--------3--------3-|---------||-----------|
A|-5-0-3h5----0-3h5----0-3h5---|-------0-||-----------|
D|-----------------------------|-0-3h5---||-0~~~~~~~~-|



Track 5:

Title: Snakecharmer
Artist: Rage Against The Machine
Tuning: Drop-D (DADG)

 Verse:                 Bridge part 1:
G|---------------------||-----------------|-----------------|
D|-------3----------3--||-----------------|-----------------|
A|----5----------5-----||----5----3-5-3-5-|----5------5-4-3-|
D|-0----------0--------||-0-----0---------|-0-----0-0-------|

 Bridge part 2:               Chorus part 1:
G|-------------|-------------||--------||---------|---------|
D|-------------|-------------||--------||---------|---------|
A|-5-5-5-5-5-3-|-------------||--------||---------|---------|
D|-------------|-5-5-5-5-5-3-||-0--12\-||-3--12\--|-2--12\--|

 Chorus part 2:
G|---------------------------|-----------------------|
D|---------------------------|-----------------------|
A|----5----------------5-3---|----5--5--5-3----------|
D|-0-----5-3-0--7-5-0------3-|-0-------------5-3--0--|



Track 6:

Title: Tire Me
Artist: Rage Against The Machine
Tuning: Drop-D (DADG)

 Intro/Verse/Bridge:
G|---------------|---------------|------------<4>-|
D|---------------|---------------|------------<4>-|
A|---------------|-------------3-|----------------|
D|-3-0-0-3-0-0-3-|-3-0-0-3-4-5---|-3-0-0-3-0-0----|

 Chorus:
G|---------------------------------||--------|
D|---3------3------3------3--------||--------|
A|-----5------5------5------5------||--------|
D|-0------0------0------0------0-3-||-0~~~~~-|

 Interlude:
G|---------------------|
D|---------------------|
A|---------------------|
D|-3-0-3-0-3-0-3-0-3-0-|



Track 7:

Title: Down Rodeo
Artist: Rage Against The Machine
Tuning: EADG

 Intro:
G|-----------------|----------------------------|
D|-----------------|----------------------------|
A|-4-4-4-4-4-4-4-4-|-/7-7-7-7-7-7-7-7-7-7-7-----|
E|-----------------|------------------------x-0-|

 PreChorus:
G|-----------------------------------------------|
D|-----------------------------------------------|
A|-----------------------------------------------|
E|-0-2--2-0-0-2-0-2-3-2-0--0-2-----x-x-x--x--x-x-|

 Chorus:                  Verse:
G|-------------|-----<4>-||------/12-12-12-12-12-12-12-|
D|-------------|-----<4>-||----------------------------|
A|-------------|---------||----------------------------|
E|-0-2--x--x-x-|-0-2-----||-0-2------------------------|

G|----/12-12-12-12-12-12-12-|-------/12-12-12-12-12-12-12-|
D|--------------------------|-----------------------------|
A|--------------------------|-----------------------------|
E|-2------------------------|-0--2------------------------|

 Verse Fill:
G|------/12-------12-------12-|
D|----------14-12----14-12----|
A|----------------------------|
E|-0--2-----------------------|

 Bridge:
G|-----------------------------------|
D|-----------------------------------|
A|-----------------------------------|
E|-3-3-3-3-3-3-3-3-3-3-3-3-3-3-3-x-0-|

 Interlude:
G|------------|-----------------|-----------------|
D|------------|-----------------|-3-3-3-3-3-3-3-3-|
A|------------|-5-5-5-5-5-5-3-5-|-----------------|
E|-0--0--0--0-|-----------------|-----------------|

 Outro:
G|----------------|----------------|----------|
D|----------------|-----------3----|----------|
A|------5----3----|------5---------|--7~~~~~~-|
E|-0--------------|-0--------------|--0~~~~~~-|



Track 8:

Title: Without A Face
Artist: Rage Against The Machine
Tuning: EADG

 Verse:           Verse Variations:
G|---------------||-----------||--------------------|
D|---------------||-----------||--------------------|
A|-7-5-7-------8-||-7-------8-||-7-5-7--5-7-------8-|
E|--------5-7--8-||----5-7--8-||-------------5-7--8-|

 Bridge:          1           2
G|---------------|-----------|-----------------|
D|---------------|-----------|-----------------|
A|-7-5-7-------8-|-----------|-----------------|
E|--------5-7--8-|---1-1-1-3-|-8-8-8-8-1-1-1-3-|

 PreChorus:
G|-----------------------------------------|
D|-------(gradually-increase-volume)-------|
A|-----------------------------------------|
E|-3-3-3-3-3-3-3-3-3-3-3-3-3-3-3-3-3-3-3-3-|

 Chorus:
G|-------------------------------------|
D|-------------------------------------|
A|-------------------------------------|
E|-3-0-3-0-3-0-3-0-3-0-3-0-3-0-3-0-1-3-|

 Outro:
G|------------------------|--------------------|
D|------------------------|--------------------|
A|------------------------|--------------------|
E|-3--1--3--1--3--1--3--1-|--3^------3------3\-|



Track 9:

Title: Wind Below
Artist: Rage Against The Machine
Tuning: EADG

 Intro/Chorus:
G|-------------------------------------------------------------|
D|-9-7-9-10-9-7---------7--------------------------------------|
A|---------------9-8-7----9----7--------4----------------------|
E|---------------------------9----7-5-7---7-5-0--x-x-x--x--x-x-|

G|-------------------------------------------------|
D|-9-7-9-10-9-7---------7--------------------------|
A|---------------9-8-7----9----7--------4----------|
E|---------------------------9----7-5-7---7-5-0~~~-|

 Verse:
G|----------------------|
D|----------------------|
A|-/7---7-5-------------|
E|----0-----3-0--0-0~~~-|

 Interlude:
G|----------------------------------------------------|
D|----------------------------------------------------|
A|----------------------------------------------------|
E|-0-1-1-0-0-xxxx-xxxx-xxx-0-1-1-0-0-1-1-0-0-xxxx-xxx-|

G|-----------------------------------------------------------|
D|-----------------------------------------------------------|
A|-----------------------------------------------------------|
E|-0-1-1-0-0-xxxx-xxxx-xxx-0-1-1-0-0-1-1-0-1-0-0-1-0-1-1-1-1-|



Track 10:

Title: Roll Right
Artist: Rage Against The Machine
Tuning: EADG

  Intro/Chorus:
G|-----6---4----------------------------|    |-----------------|
D|-------0---0-6---5---4---2------------|    |-----------------|
A|-4-------------0---0---0---0--2-0-2-4-| or |-------------2-4-|
E|---0----------------------------------|    |-0---------------|

  Verse:                      Bridge:
G|--------------------------||-----------||-------|
D|--------------------------||-----------||-------|
A|-4\-x-4-4--x-7-x-6-x-5--x-||-4\-x-4-4\-||-------|
E|--------------------------||-----------||-0~~~~-|

  Outro:                                      End:
G|-----------------/7-||--------------------||------|
D|--------------------||--------------------||------|
A|-----5h7------------||-----5h7---------/5-||------|
E|-0---------3--0-----||-0---------3--0-----||-0~~~-|



Track 11:

Title: Year Of Tha Boomerang
Artist: Rage Against The Machine
Tuning: Drop-D (DADG)

 Verse/Chorus:
G|------------------|------------------|
D|----0h2-----------|----0h2-----------|
A|------------------|------------------|
D|-2-------0--2----0|-2-------0--2----0|

 Bridge:                                 End:
G|---------|------------|---------------||----|
D|---------|------------|---------------||----|
A|---------|--------0---|-----------0---||----|
D|-4-4---2-|-4-4--4---2-|-4-4-4-2-4---2-||-4\-|
comments
We did not receive enough feedback on this tab! Please rate:
print report bad tab
1 2 3 4 5
I want to post or [tab]
guest
You may want to rate the tab now too:
select rating
Please do not post tabs as comments. Select "correction" instead!