Oops, an error
Loading. Please wait.

Fistful Of Steel Tab

version 1
version 1

Whole song

Interactive

52,586 views 36 this week
9 commentsread comments
1 2 3 4 5
x 11
add to favorites
launch autoscroll
font size
0
reset
how to read this tab
guitar tuner
Autoscroll
slow
fast
+/-
esc
set tempo
stop
Help us to improve Ultimate-Guitar.com Take our survey!
×
Standard Tuning (EADGBE)

[Intro]  
(This is a neat kind of motorized sound.  Set the Whammy pedal 
2 oct. up, and trem pick a muted E-string while moving the pedal up 
and down slowly.  End by picking all open strings with pedal fully 
depressed, then move on to chorus)

[Chorus] 
(whammy off)
e|-------------------------------|---------------------------------|
B|---------------------0--<7>----|---------------------0--<12>--0--|
G|---------------------0--<7>----|---------------------0--<12>--0--|
D|--------x-x----------0--<7>----|--------x-x----------0--<12>--0--|
A|-2-4-4--x-x--2-4-4---0--<7>----|-2-4-4--x-x--2-4-4---0--<12>--0--|
E|-0h2-2--x-x--0h2-2-------------|-0h2-2--x-x--0h2-2---------------|

e|-------------------------------|------------------------------------|
B|---------------------0--<5>----|---------------------<12>--x--<12>--|
G|---------------------0--<5>----|---------------------<12>--x--<12>--|
D|--------x-x----------0--<5>----|--------x-x----------<12>--x--<12>--|
A|-2-4-4--x-x--2-4-4---0--<5>----|-2-4-4--x-x--2-4-4---<12>--x--<12>--|
E|-0h2-2--x-x--0h2-2-------------|-0h2-2--x-x--0h2-2------------------|

(not exactly tabbed, experiment with different harmonics when needed)

(Repeat the same pattern 3x, ending on)
e|------------------------------------|
B|------------------------------------|
G|------------------------------------|
D|--------x-x----------12--x--12--12--| 
A|-2-4-4--x-x--2-4-4---12--x--12---x--|
E|-0h2-2--x-x--0h2-2---12--x--12---x--|

[Verse 1]
(Whammy on, 2 oct.)

---14----|

(Pick note, then raise/lower the pitch with whammy pedal or whammy bar 
accordingly.  Repeat 8x (use the whammy bar for some vibe on the 
8th repeat & sustain).

[Pre-Chorus]
(Whammy on)
e|------------------------------------|-0---------------|
B|------------------------------------|-0---------------|
G|------------------------------------|-0---------------|
D|-volume swell for feedback----------|-0---------------|
A|------------------------------------|-0---------------|
E|------------------------------------|-0---------------|

[Chorus] 
(whammy off)
e|-------------------------------|---------------------------------|
B|---------------------0--<7>----|---------------------0--<12>--0--|
G|---------------------0--<7>----|---------------------0--<12>--0--|
D|--------x-x----------0--<7>----|--------x-x----------0--<12>--0--|
A|-2-4-4--x-x--2-4-4---0--<7>----|-2-4-4--x-x--2-4-4---0--<12>--0--|
E|-0h2-2--x-x--0h2-2-------------|-0h2-2--x-x--0h2-2---------------|

e|-------------------------------|------------------------------------|
B|---------------------0--<5>----|---------------------<12>--x--<12>--|
G|---------------------0--<5>----|---------------------<12>--x--<12>--|
D|--------x-x----------0--<5>----|--------x-x----------<12>--x--<12>--|
A|-2-4-4--x-x--2-4-4---0--<5>----|-2-4-4--x-x--2-4-4---<12>--x--<12>--|
E|-0h2-2--x-x--0h2-2-------------|-0h2-2--x-x--0h2-2------------------|


[Verse 2] 
(Whammy on, 2 oct.)

---14----|

(Pick note, then raise/lower the pitch with whammy pedal or whammy bar 
accordingly.  Repeat 8x (use the whammy bar for some vibe on the 
8th repeat & sustain).

[Pre-Chorus]
(Whammy on)
e|------------------------------------|-0---------------|
B|------------------------------------|-0---------------|
G|------------------------------------|-0---------------|
D|-volume swell for feedback----------|-0---------------|
A|------------------------------------|-0---------------|
E|------------------------------------|-0---------------|

[Chorus] 
(whammy off)
e|-------------------------------|---------------------------------|
B|---------------------0--<7>----|---------------------0--<12>--0--|
G|---------------------0--<7>----|---------------------0--<12>--0--|
D|--------x-x----------0--<7>----|--------x-x----------0--<12>--0--|
A|-2-4-4--x-x--2-4-4---0--<7>----|-2-4-4--x-x--2-4-4---0--<12>--0--|
E|-0h2-2--x-x--0h2-2-------------|-0h2-2--x-x--0h2-2---------------|

e|-------------------------------|------------------------------------|
B|---------------------0--<5>----|---------------------<12>--x--<12>--|
G|---------------------0--<5>----|---------------------<12>--x--<12>--|
D|--------x-x----------0--<5>----|--------x-x----------<12>--x--<12>--|
A|-2-4-4--x-x--2-4-4---0--<5>----|-2-4-4--x-x--2-4-4---<12>--x--<12>--|
E|-0h2-2--x-x--0h2-2-------------|-0h2-2--x-x--0h2-2------------------|

[Solo 1]
(metal slide)
e|-///\\\------------------------------------|-\/\/\/\/\/\/\/\/--------------------|
B|-///\\\------------------------------------|-/\/\/\/\/\/\/\/\--------------------|
G|-///\\\--slide up and down while toggling--|-\/\/\/\/\/\/\/\/\-------------------|
D|-///\\\------to beat, then...--------------|-scrape first 3 strings side-to-side-|
A|-///\\\------------------------------------|-near pickups for high pitched-------|
E|-///\\\------------------------------------|----------squealing------------------|

[Bridge part 1]
(repeat both parts twice accordingly)
e|-----------------|
B|-----------------|
G|-----------------|
D|-----------------|
A|-9-8-7-0-9-8-7-0-|
E|-----------------|
   pm...slowly lift towards end...repeat lots of times...

[Bridge part 2]
e|-----------------------------|
B|-----------------------------|
G|-----------------------------|
D|---------x-------------------|
A|-2---4---x-7---9-8-7-0-9-8-7-|
E|-0---2---x-5-----------------|

(variation)
The "laughing guitar" part I believe is done by the bass, 
but if you have a second guitarist this works -- rub the 3 wound 
strings while SLIGHTLY rocking whammy pedal.

[Solo 2]
(I did not tab some of this, some of it's not correct but it's 
close -- I made a few corrections that I think seem right):

e|-14-14-14----------17-17-17----------|
B|-------------------------------------| (repeat many times)
G|----------14-14-14----------14-14-14-|
D|-------------------------------------|
A|-------------------------------------|
E|-------------------------------------|

e|----14----17-17---14----17------------------------|
B|------------------------------17--17-14-18b19~~~\-|
G|-14----14------14----14----14---------------------|
D|--------------------------------------------------|
A|--------------------------------------------------|
E|--------------------------------------------------|

e|19-19-19-17----19-19-19-17----21-19-19-17----|
B|------------17-------------17-------------17-|
G|---------------------------------------------|
D|---------------------------------------------|
A|---------------------------------------------|
E|---------------------------------------------|

e|-------------------------------|
B|-------------------------------|
G|/13\/14\/15\/16\/17\/17\/17----|
D|-------------------------------|
A|-------------------------------|
E|-------------------------------|

[Bridge part 2] x2
e|-----------------------------|
B|-----------------------------|
G|-----------------------------|
D|---------x-------------------|
A|-2---4---x-7---9-8-7-0-9-8-7-|
E|-0---2---x-5-----------------|

[Outro]
e|------------------------|
B|------------------------|
G|-3b4--------------------|
D|------------------------|
A|----------------4-------|
E|----------------2-------|

Song: Fist Full of Still

e|--------------------------------7--|
B| --------------------------------7-|
G|---------------------------7---*7--|
D| ----------------------7----7------|
A|---2--4--4--2--4--4---7---*7-------|
E| ---0--2--2--0--2--2--*7-----------|

e|--------------------------|  
B|--------------------------| 
G|--------------------------| 
D|--4--3--2----4--3--2------|
A|-----------0-----------0--| 
E|--------------------------| 
                   
e|------------------------------------|
B|------------------------------------|
G|------------------------------------|
D|---4--3--2-----4--3--2-----------2--|
A|------------0--------------2--4--0--|
E|---------------------------0--2-----|

                                harm.                                 harm.
                               /----                              /--------
e|----------------------------------------------------------------------------|
B|----------------------------------------------------------------------------|
G|----------------------------------------------------------------------------|
D|--2--4--4---x--x----2--4--4---7--3-----2--4--4---x--x----2--4--4---7--3-----|
A|--0--2--2---x--x----0--2--2---7--3-----0--2--2---x--x----0--2--2---7--3--3--|
E|--0--2--2---x--x----0--2--2------------0--2--2---x--x----0--2--2---------3--|

                               harm.                                   harm.
                               /---                                /--------
e|----------------------------------------------------------------------------|
B|----------------------------------------------------------------------------|
G|----------------------------------------------------------------------------|
D|--2--4--4---x--x----2--4--4---7--3-----2--4--4---x--x----2--4--4---3--m-----|
A|--0--2--2---x--x----0--2--2---7--3-----0--2--2---x--x----0--2--2---3--m--3--|
E|--0--2--2---x--x----0--2--2------------0--2--2---x--x----0--2--2------m--3--|

----->(x3)
N.B. : for the third time, d|--3--| and a|--3--| are replaced by a|--3--|
and E|--3--|(last note only!)

(Between both riffs, there's a little sound played with a wah-wah pedal which
I don't have)

                                harm.                                 harm.
                               /----                              /--------
e|----------------------------------------------------------------------------|
B|----------------------------------------------------------------------------|
G|----------------------------------------------------------------------------|
D|--2--4--4---x--x----2--4--4---7--3-----2--4--4---x--x----2--4--4---7--3-----|
A|--0--2--2---x--x----0--2--2---7--3-----0--2--2---x--x----0--2--2---7--3--3--|
E|--0--2--2---x--x----0--2--2------------0--2--2---x--x----0--2--2---------3--|

                                 harm.                                  harm.
                                /---                               /--------
e|----------------------------------------------------------------------------|
B|----------------------------------------------------------------------------|
G|----------------------------------------------------------------------------|
D|--2--4--4---x--x----2--4--4---7--3-----2--4--4---x--x----2--4--4---3--m-----|
A|--0--2--2---x--x----0--2--2---7--3-----0--2--2---x--x----0--2--2---3--m--3--|
E|--0--2--2---x--x----0--2--2------------0--2--2---x--x----0--2--2------m--3--|
(x2)

(repeat 2 more times before the solo)

e|---------|
B|---------|
G|---------|
D|-4-3-2---|
A|-------0-|
E|---------|
(x16)

e|--------------------------|
B|--------------------------|
G|--------------------------|
D|-2--4---7---4-3-2---4-3-2-|
A|-2--4---7---------0-------|
E|-0--2--~5~----------------|
(x4)

e|---------|
B|---------|
G|---------|
D|-4-3-2---|
A|-------0-|
E|---------|
----->(many times!.....just wait for the drum to start the other riff)

e|--------------------------|
B|--------------------------|
G|--------------------------|
D|-2--4---7---4-3-2---4-3-2-|
A|-2--4---7---------0-------|
E|-0--2--~5~----------------|
------>('til the end)



Song: Fistful of Steel

(the intro w/the sounds is played on the a-string (muted w/frethand) and the
'frethand' moves up and down the a string changing the sound.)

e|--------------------------------------------------------------------|
B|--------------------------------------------------------------------|
G|-------------------------------------0--3---------------------------|
D|-------------------------------------0--3---------------------------|
A|--2--4--4---x--x----2--4--4---x--x----------2--4--4---x--x----------|
E|--0--2--2---x--x----0--2--2---x--x----------0--2--2---x--x----------|

e|--------------------------------------------------------------------|
B|--------------------------------------------------------------------|
G|--------------------0--12--12--------------------------------------|
D|--------------------0--12--12--------------------------------------|
A|--2--4--4---x--x-----------12------2--4--4---x--x---2--4--4---x--x-|
E|--0--2--2---x--x--------------------0--2--2---x--x---0--2--2---x--x-|

                                  1st time      2nd time   3rd time (last)
e|------------------------------|-------------|-----------|--------------|
B|------------------------------|------0------|------0----|----x-0--9----|
G|---0--5-----------------------|---0--0------|---0--0----|--0-x-0--9----|
D|---0--5-----------------------|---0---------|---0-------|--0-----------|
A|----------2--4--4---x--x------|-------------|-----------|--------------|
E|----------0--2--2---x--x------|-------------|-----------|--------------|



************************************

| x  Dead note
| h  Hammer-on
| b  Bend
| /  Slide up
| *  Natural harmonic
| ~  Vibrato
| >  Accented note

************************************
Suggest correction
comments
print report bad tab
9 comments total. Showing first comments.
0 reply
con job 160 Dec 01, 2006 09:42 AM

y are there 4 versions in one?the first one is by far the best anyway

0 reply
guitarmcg 63 Sep 18, 2007 07:26 AM

i agree, great tab

0 reply
alsk8er14 1,580 Sep 29, 2007 12:34 PM

on the main riff i found it's easier (and to me sounds more like it) if you play it like this
|----------------------------|-----------------------------|-
|------------------0------|------------------0----0----|-
|------------------0------|------------------0----0----|-
|--------x-x-------0------|--------x-x-------0----0----|-
|-2-4-4--x-x-2-4-4-0------|-2-4-4--x-x-2-4-4-0----0----|-
|-0-0-2--x-x-0-0-2-----------|-0-0-2--x-x-0-0-2---------------|-

|--------------------------|-------------------------------|-
|----------------0------|------------------12--x--12----|-
|----------------0------|------------------12--x--12----|-
|--------x-------0------|--------x-x-------12--x--12----|-
|-2-4-4--x-2-4-4-0------|-2-4-4--x-x-2-4-4-12--x--12----|-
|-0-0-2--x-0-0-2-----------|-0-0-2--x-x-0-0-2--------------|-

guest
You may want to rate the tab now too:
select rating
Wanna post a correction for this tab? Suggest correction