Oops, an error
Loading. Please wait.

Ghost Of Tom Joad Tab

3,085 views 9 this week
2 commentsread comments
1 2 3 4 5
worth learning
x 4
add to favorites
launch autoscroll
font size
0
reset
how to read this tab
guitar tuner
Autoscroll
slow
fast
+/-
esc
set tempo
stop
Help us to improve Ultimate-Guitar.com Take our survey!
×
Author
Difficulty
novice
-----------------------------------------------------------------------
           The ghost of tom joad - Rage Against The Machine 

Tabbed by: Lewis :-)
Email:

Tuning:DADGBe
e|--------------------------------------------------------------------------|
B|--------------------------------------------------------------------------|
G|--------------------------------------------------------------------------|
D|--------------------------------------------------------------------------|
A|-------------5------3-------0---------------------------------------------|
D|-----0--------------------------------5--------3--------0-----------------|

e|----------------------------------------|
B|----------------------------------------|
G|----------------------------------------|
D|----------------------------------------|
A|-----3-----------------0--------3~------|
D|---------------5------------------------|

e|--------------------------------------------------------------------------|
B|--------------------------------------------------------------------------|
G|--------------------------------------------------------------------------|
D|--------------------------------------------------------------------------|
A|-------------5------3-------0---------------------------------------------|
D|-----5--------------------------------5--------3--------0-----------------|


e|------------------------------------------------|
B|------------------------------------------------|
G|------------------------------------------------|
D|------------------------------------------------|
A|-----3-----------------0--------3~--------------|
D|---------------5--------------------------0-----|
~  vibrato

Suggest correction new What's this?
You can suggest a correction to this tab. Community and Mods will review your correction and vote to approve or reject it.
comments
print report bad tab
2 comments total.
0 reply
Metaluya 378 wrote on March 10 2011, 05:01 pm

^fail comment
****ing hell
it should be on the second time
e|------------------------------|
B|------------------------------|
G|------------------------------|
D|------------------------------|
A|---5-3-0-------3---0-3--------|
D|-0-------5-3-0---5------------|

0 reply
Metaluya 378 wrote on March 10 2011, 05:02 pm

it should be like this on the second time
just like the first one good tab though it should be 5 star
e|------------------------------|
B|------------------------------|
G|------------------------------|
D|------------------------------|
A|---5-3-0-------3---0-3--------|
D|-0-------5-3-0---5------------|

guest
You may want to rate the tab now too:
select rating
Please do not post tabs as comments. Select "correction" instead!