Oops, an error
Loading. Please wait.

Guerilla Radio Tab

version 3
version 3

Whole song

Interactive

35,974 views 1 this week
9 commentsread comments
1 2 3 4 5
x 10
add to favorites
launch autoscroll
font size
0
reset
how to read this tab
guitar tuner
Autoscroll
slow
fast
+/-
esc
set tempo
stop
Help us to improve Ultimate-Guitar.com Take our survey!
×

I want this tab!

Sorry, this artist has told us we can not show this tab.

Help us change their mind!
Tell us why you want to learn this song or why it is important to you, and
we will share these directly with the artist or their representative.
Your words and your story can make a difference. It works!

To understand more on what is happening, please read this article:
Why Songs on Ultimate Guitar Are Licensed (time to read: 1 minute)

comments
print report bad tab
9 comments total. Showing first comments.
0 reply
guitarzan 120 May 06, 2002 12:00 AM

nope, nope nope nope

0 reply
Metallica12_12 60 Dec 16, 2004 12:00 AM

wrong begin its done in power cords

|-------------------------------|
|-------------------------------|
|-------------------------------|
|----------------------2--4-----|
|-2--4--4--2--4--2--4--0--2-----|
|-0--2--2--0--2--0--2-----------|

|
|
|
|
|

0 reply
nicklopeke 31 Aug 31, 2006 06:17 PM

I believe Tom plays it like this for easier playabilty.

e|-------------------------|
B|-------------------------|
G|--------------------2-4--|
D|--2--4-4--4-4-4-4---2-4--|
A|--2--4-4--4-4-4-4---0-2--|
E|--0--2-2--0-2-0-2--------|

guest
You may want to rate the tab now too:
select rating
Wanna post a correction for this tab? Suggest correction