Oops, an error
Loading. Please wait.

Hadda Be Playin On The Jukebox bass

716 views 1 this week
2 commentsread comments
1 2 3 4 5
x 4
add to favorites
×
Save as Personal and add changes to this tab that will be seen only by you. Learn more ›
×
You can save this tab as Personal to edit and correct it or add notes. All changes will be seen only by you. Learn more »
launch autoscroll
font size
0
reset
guitar tuner
edit
Autoscroll
slow
fast
+/-
esc
set tempo
stop
Hadda be playin on the jukebox:
Rage Against The Machine

Tabbed by: JP Fernandez



Throughout this song the bass simply plays one figure over 
and over:


G--------------------/12---------7*------------
D-----------------9--/12--14--------7*---------
A--------7-----7----------14-----------7*------
E--0--------0----------------------------------


* refers to a touch harmonic @ the numbered fret.

This transcription is of the version on the UK
single of Bulls On Parade, it's the only version I know of
in official existance but as far as bootlegs go... who knows?

            
            
Suggest correction
Creating personal tab
Creating personal tab
You can edit any tab online and save it as your Personal.

You can edit, replace or remove any tab part or add personal notes – all changes will be seen only by you.

Personal tabs can be accessed anytime from any device, even offline.
Learn more »
comments
print report bad tab
2 comments total.
0 reply
dondestatugato 10 May 14, 2008 02:47 PM

where did u get the single???

0 reply
wongtong 87 Jun 05, 2009 07:22 PM

G--------------------/1210------7*------------
D-----------------9--/1210---------7*---------
A--------7-----7-----------------------7*------
E--0--------0----------------------------------

sounds better.

guest
Wanna post a correction for this tab? Suggest correction