Oops, an error
Loading. Please wait.
926 views 1 this week
2 commentsread comments
1 2 3 4 5
1 last vote to show rating
add to favorites
launch autoscroll
font size
0
reset
guitar tuner
×
Best way to learn
"Housin"
Autoscroll
slow
fast
+/-
esc
set tempo
stop
ratm-im housin'

tabbed by: sim

this my first tab but i think it is correct.

PENNYWISE RULE!!!

regular tuning

Verse:
g|--------------------------------------------
d|--------------------------------------------
a|---7/10-7-6-5-2-1--------7/10-7-6-5-2-1----- X 6
e|-0----------------3-5--0----------------0-0-


(coz im housin)
g|----------------
d|-2-2-----2-2---- X 2
a|----------------
e|-0-0-----0-0----


g|-------------------------
d|-------------------------  X4
a|-------------------------
e|-12-0-12-0-12-0-12-0-0-15 


chorus:
g|--------------------
d|-2-2-----0--0------- X4
a|-----0h2------2-0--- 
e|------------------3-
Suggest correction
Give kudos to tab author, rate the tab!
1 2 3 4 5
comments
print report bad tab
2 comments total.
0 reply
ShadowsThatMove 40 Feb 20, 2008 11:17 AM

the first part is so wrong it's unbelievable. if you could actually hear well you'd see that the first part is played on the g string. idiot.

0 reply
anameofsomesort 41 Dec 22, 2009 08:47 AM

After listening to it it sounds like
Main riff is

|----/12--9--8--7-------------|
|------------------9--8--x5h7-|
|-----------------------------|
|-0---------------------------|

With the alternating ending in the verse that goes

|----/12--9--8--7-------------|---
|------------------9--8-------|---
|-----------------------------|---
|-0------------------------x0-|-0- etc.

Otherwise pretty sure the rest is right

guest
You may want to rate the tab now too:
select rating
Wanna post a correction for this tab? Suggest correction