Oops, an error
Loading. Please wait.

How I Could Just Kill A Man bass

version 3
version 3

Whole song

Interactive

1,498 views 1 this week
1 commentread comment
1 2 3 4 5
3 more votes to show rating
add to favorites
×
Save as Personal and add changes to this tab that will be seen only by you. Learn more ›
×
You can save this tab as Personal to edit and correct it or add notes. All changes will be seen only by you. Learn more »
launch autoscroll
font size
0
reset
guitar tuner
backing track
0:00
0:00
edit
Autoscroll
slow
fast
+/-
esc
set tempo
stop
-------------------------------------------------------------------------------------------------------------
			     How I Could Just Kill a Man - Rage Against the Machine
-------------------------------------------------------------------------------------------------------------

Tabbed By : Munkey
e-mail: darkmunkeyxhf@Yahoo.com

Tuning:Drop D
I didn’t write this all myself. I used some parts from other tabs on the site in order 
get it correct.

Verse
G|-----------------------------------------------------------------------------|
D|-----------------------------------------------------------------------------|
A|-----------3h5—3p0-----------------------------------------------------------|
D|-----3h5------------------5--3--0--------------------------------------------|

Refrain
G|-----------------------------------------------------------------------------|
D|------3-----------------------------3h5p3------------------------------------|
A|---------5-------------------------------------------------------------------|
D|---0---------0--3--5--00000--------------------------------------------------|

Riff A
G|-----------------------------------------------------------------------------|
D|-----------------------------------------------------------------------------|
A|-----------------------------------------------------------------------------|
D|-----0-0-0-0-0---------------------------------------------------------------|

Riff B
G|-----------------------------------------------------------------------------|
D|------4p2-----------------44-------------------------------------------------|
A|------------4p2--------------------------------------------------------------|
D|--4----------------4p2--------44---------------------------------------------|

Riff C (that’s 8 Twos)
G|-----------------------------------------------------------------------------|
D|-----------------------------------------------------------------------------|
A|-----------------------------------------------------------------------------|
D|-----22222222----------------------------------------------------------------|


Verse x12
Refrain x4
Verse x10
Riff A x4
Verse x2
Riff A x1
Refrain x4
Riff B x8
Riff A x4
Verse x8
Riff C x7
Refrain x8
Riff A x5

| h  hammer-on
| p  pull-off

==========================================================================
Suggest correction
Creating personal tab
Creating personal tab
You can edit any tab online and save it as your Personal.

You can edit, replace or remove any tab part or add personal notes – all changes will be seen only by you.

Personal tabs can be accessed anytime from any device, even offline.
Learn more »
Give kudos to tab author, rate the tab!
1 2 3 4 5
comments
print report bad tab
1 comment total.
0 reply
gdrocks2230 347 Feb 27, 2008 04:27 PM

this tab kinda sucks

guest
You may want to rate the tab now too:
select rating
Wanna post a correction for this tab? Suggest correction