Oops, an error
Loading. Please wait.

Im Housin bass

version 3
version 3

Interactive

846 views 1 this week
5 commentsread comments
1 2 3 4 5
x 3
add to favorites
×
Save as Personal and add changes to this tab that will be seen only by you. Learn more ›
×
You can save this tab as Personal to edit and correct it or add notes. All changes will be seen only by you. Learn more »
launch autoscroll
font size
0
reset
guitar tuner
edit
Autoscroll
slow
fast
+/-
esc
set tempo
stop
Author
Difficulty
ive looked at this song and this is what i think the tab to it is

Rage Against the Machine - Im Housin

Intro

G|------------------------------------------------|
D|------------------------------------------------|
A|------------------------------------------------|
E|-0-15-12-11-10-7-6-3h5-0--15-12-11-10-7-6--0-0--|

Play this bout 6 or 8 times, you can work out the timing on the song

Pre-chorus

G|----------------------|
D|--2-2--2-2--2-2--2-2--|
A|----------------------|
E|--0-0--0-0--0-0--0-0--|

G|----------------------------|
D|----------------------------|
A|----------------------------|
E|--12-0-12-0-12-0-12-0-0-15~-| Play bout 4 times

Chorus

G|--------------------|
D|--------------------|
A|--7-7-----5---------|
E|------5h7---7h5-3p0-| Play 4 times, last time play 0 again at the end

this is basically the song, you can work out when to play each bit by listenin to the song

Enjoy


            
            
Suggest correction
Creating personal tab
Creating personal tab
You can edit any tab online and save it as your Personal.

You can edit, replace or remove any tab part or add personal notes – all changes will be seen only by you.

Personal tabs can be accessed anytime from any device, even offline.
Learn more »
Give kudos to tab author, rate the tab!
1 2 3 4 5
comments
print report bad tab
5 comments total. Showing first comments.
0 reply
FunkyC*FunkyDu* 10 Jun 06, 2006 10:44 AM

good but the intro a little different. the e string rings out during the rest of it so it has to be like this.

G|------------------------------|
D|------------------------------|
A|---10--7--6--5--2--1----------|
E|-0--------------------3h5-0---|

0 reply
daiRex50 20 Jul 10, 2006 09:57 AM

quality tab....but i think the intro is out a bit too

0 reply
Tomnthegang 72 Nov 10, 2006 11:42 AM

G|---12-9-8-7-4-3-0-2-----------|
D|------------------------------|
A|------------------------------|
E|-0-------------------0-0------|

Much better.

guest
You may want to rate the tab now too:
select rating
Wanna post a correction for this tab? Suggest correction