Oops, an error
Loading. Please wait.

Im Housin tab

version 5
version 5
13,528 views 3 this week
9 commentsread comments
1 2 3 4 5
x 15
add to favorites
×
Save as Personal and add changes to this tab that will be seen only by you. Learn more ›
×
You can save this tab as Personal to edit and correct it or add notes. All changes will be seen only by you. Learn more »
launch autoscroll
font size
0
reset
how to read this tab
guitar tuner
edit
Autoscroll
slow
fast
+/-
esc
set tempo
stop
Author
Rage Against The Machine
I'm Housin'

By KirK_H@mmeT  NZ

After seeing some shocking tabs (especially for the solo) i decided to perfect it.
Please rate if you think its close


This is the bass riff at the start:
e|-------------------------------|
B|-------------------------------|
G|-------------------------------|
D|-------------------------------|
A|-------------------------------|
E|--0--15-12-11-10-7-6--3h5---0--|

Then this every time:
e|-------------------------------|
B|-------------------------------|
G|-------------------------------|
D|-------------------------------|
A|-------------------------------|
E|--0--15-12-11-10-7-6\-----0-0--|

Verse:
If you dont have a wah peddal then simply bending the strings will have a similar effect.

e|----------------------------|
B|----------------------------|
G|--9b--12b----9b-9b-9b--12b--| 
D|--9b--12b----9b-9b-9b--12b--| 
A|----------------------------| 
E|----------------------------|x8

Bridge:

e|----------------------------|
B|----------------------------|
G|----------------------------|
D|----------------2-2---------|
A|----------------2-2---------|
E|----------------0-0---------|x4

e|--------------------------------------|
B|--------------------------------------|
G|--------------------------------------|
D|--2-2--2-2--2-2--2-2-2-12-------------|
A|--2-2--2-2--2-2--2-2-2-12-------------|
E|--0-0--0-0--0-0--0-0-0-10-------------|x4


Main Riff:
e|---------------------------------------------|
B|---------------------------------------------|
G|---------------------------------------------|
D|---------------------------------------------|
A|----7-7------5---5---------------------------|
E|---------5-7-------7-5-3---------------------|x7

e|---------------------------------------------|
B|---------------------------------------------|
G|---------------------------------------------|
D|-----------------------------2---------------|
A|----7-7------5---5-----------2---------------|
E|---------5-7-------7-5-3-----0---------------|


Verse:
e|----------------------------|
B|----------------------------|
G|--9b--12b----9b-9b-9b--12b--| 
D|--9b--12b----9b-9b-9b--12b--| 
A|----------------------------| 
E|----------------------------|x8

Bridge:
e|----------------------------|
B|----------------------------|
G|----------------------------|
D|----------------2-2---------|
A|----------------2-2---------|
E|----------------0-0---------|x4

e|--------------------------------------|
B|--------------------------------------|
G|--------------------------------------|
D|--2-2--2-2--2-2--2-2-2-12-------------|
A|--2-2--2-2--2-2--2-2-2-12-------------|
E|--0-0--0-0--0-0--0-0-0-10-------------|x4

Main Riff:
e|---------------------------------------------|
B|---------------------------------------------|
G|---------------------------------------------|
D|---------------------------------------------|
A|----7-7------5---5---------------------------|
E|---------5-7-------7-5-3---------------------|x7

e|--------------------------------------|
B|--------------------------------------|
G|--------------------------------------|
D|--2-2--2-2--2-2--2-2-2-12-------------|
A|--2-2--2-2--2-2--2-2-2-12-------------|
E|--0-0--0-0--0-0--0-0-0-10-------------|x4


Solo:
e|--------------------------------------------------------------------------|
B|--------------------------------------------------------------------------|
G|---14b15r14-14-12-14---------12-------------------------------------------|
D|---------------------14-12-14--14-12-14-----------------------------------|
A|--------------------------------------------------------------------------|
E|--------------------------------------------------------------------------|

e|--------------------------------------------------------------------------|
B|---15b16r15-15-14-15b16r15-15-14---17b18r17-17b18r17-17b19----------------|
G|--------------------------------------------------------------------------|
D|--------------------------------------------------------------------------|
A|--------------------------------------------------------------------------|
E|--------------------------------------------------------------------------|


Main Riff:
e|---------------------------------------------|
B|---------------------------------------------|
G|---------------------------------------------|
D|---------------------------------------------|
A|----7-7------5---5---------------------------|
E|---------5-7-------7-5-3---------------------|x7

e|----------------------------|
B|----------------------------|
G|----------------------------|
D|----------------2-2---------|
A|----------------2-2---------|
E|----------------0-0---------|x4


Any questions or suggestions email necro_cannible@hotmail.com
Suggest correction
Creating personal tab
Creating personal tab
You can edit any tab online and save it as your Personal.

You can edit, replace or remove any tab part or add personal notes – all changes will be seen only by you.

Personal tabs can be accessed anytime from any device, even offline.
Learn more »
comments
print report bad tab
9 comments total. Showing first comments.
-1 reply
.:LoCo:. 31 Feb 18, 2006 07:13 AM

perfect!

0 reply
joselitosn 10 Mar 24, 2007 06:30 AM

i think in the bridge is better plau

e|--------------------------------------|
B|--------------------------------------|
G|-----------------------7--------------|
D|--2-0--2-0--2-0--2-0-2-7--------------|
A|--2-0--2-0--2-0--2-0-2-5--------------|
E|--0-0--0-0--0-0--0-0-0----------------|

+1 reply
MestFan99 15 Jul 10, 2007 08:56 PM

The verse and main riff are played a little different. Nothing significant but they're like this. Figure out the timing but yourselves. By the way, I got this by looking at live videos.

Verse:
E|---------------
B|---------------
G|---------------
D|9-10--9-9-9-10-
A|7-12--7-7-7-12-
E|---------------
As said, played with a wah. Don't know what other settings Tom uses.
The only reason I'd reccomend to play it this way is because it sounds twangy when you play it (because of the G string).
Main Riff:
E|---------------
B|---------------
G|---------------
D|9-9------------
A|7-7----5-5-----
E|----5h7---7-5-3
The only real difference here is using a power chord on the 7th fret A.

guest
You may want to rate the tab now too:
select rating
Wanna post a correction for this tab? Suggest correction