Oops, an error
Loading. Please wait.

It Had To Be Playin On The Jukebox bass

228 views 1 this week
2 commentsread comments
1 2 3 4 5
3 more votes to show rating
add to favorites
×
Save as Personal and add changes to this tab that will be seen only by you. Learn more ›
×
You can save this tab as Personal to edit and correct it or add notes. All changes will be seen only by you. Learn more »
launch autoscroll
font size
0
reset
guitar tuner
edit
Autoscroll
slow
fast
+/-
esc
set tempo
stop
Rage Against the Machine - It Had to be Playin on the Jukebox
Tabbed By: Ben
EMail: toastmaster_select@hotmail.com


G-------------14----------------------------------------------
D-------9--12-------------------------------------------------
A----7-7------------------------------------------------------
E---0-0-------------------------------------------------------

That is it.  If I tabbed it wrong sorry, I dont have my guitar with me
but that should be right.  Thats the whole song.
Suggest correction
Creating personal tab
Creating personal tab
You can edit any tab online and save it as your Personal.

You can edit, replace or remove any tab part or add personal notes – all changes will be seen only by you.

Personal tabs can be accessed anytime from any device, even offline.
Learn more »
Give kudos to tab author, rate the tab!
1 2 3 4 5
comments
print report bad tab
2 comments total.
+1 reply
rottingzombie 33 Nov 30, 2007 07:58 AM

thats half the song anyway, just missing the slide and the harmonics

+1 reply
Cyanide176 10 Feb 14, 2008 12:19 PM

G--------------------/12-----------*7-------------------------
D----------------9---/12---------------*7---------------------
A------7-----7--------------/14------------*7-----------------
E---0-----0-----------------/14-------------------------------

There you go :P

guest
Wanna post a correction for this tab? Suggest correction