Oops, an error
Loading. Please wait.

Kick Out The Jams bass

version 2
version 2

Whole song

Interactive

1,171 views 3 this week
1 commentread comment
1 2 3 4 5
3 more votes to show rating
add to favorites
×
Save as Personal and add changes to this tab that will be seen only by you. Learn more ›
×
You can save this tab as Personal to edit and correct it or add notes. All changes will be seen only by you. Learn more »
launch autoscroll
font size
0
reset
guitar tuner
edit
Autoscroll
slow
fast
+/-
esc
set tempo
stop
----------------------------------------------------------------------------
KICK OUT THE JAMS - Rage Against the Machine
----------------------------------------------------------------------------

Tuning:Standard

Intro: (we gotta kick 'em out)
G|-----------------------------------------------------Play 1x--------------|
D|--------------------------------------------------------------------------|
A|--------------------------------------------------------------------------|
E|-(snare hit)---5557~------------------------------------------------------|

Verse:
G|-----------------------------------------------------Play 12x--------------|
D|----------5-7--7-----------------------------------------------------------|
A|--------77-------7-5-------------------------------------------------------|
E|---------------------------------------------------------------------------|

Verse Variation: (those are all twelves or fourteens)
G|-----------------------------------------------------Play 2x--------------|
D|-------------5/12-1212\-----5/14-1414\------------------------------------|
A|-----------77------------77-----------------------------------------------|
E|--------------------------------------------------------------------------|

Chorus:
G|-----------------------------------------------------Play 1x--------------|
D|--------------------------------------------------------------------------|
A|------------5~--------5~---X----------------------------------------------|
E|----5557~--------3~--------X----------------------------------------------|

For the solo, play the verse, but play the variation 4 times instead of twice

Ending (not the correct amount of notes, but, you get the idea)
G|-------------------------7777777---------------------Play 1x--------------|
D|--------------------------------------------------------------------------|
A|--------------------------------------------------------------------------|
E|------7777777777--------------------------77777\--------------------------|

| /  slide up
| \  slide down
| ~  let ring
| X  Palm mute
============================================================================
Suggest correction
Creating personal tab
Creating personal tab
You can edit any tab online and save it as your Personal.

You can edit, replace or remove any tab part or add personal notes – all changes will be seen only by you.

Personal tabs can be accessed anytime from any device, even offline.
Learn more »
Give kudos to tab author, rate the tab!
1 2 3 4 5
comments
print report bad tab
1 comment total.
0 reply
BucketheadRules 279 Sep 01, 2005 08:00 PM

sorry, the verse actually goes
G----------------------------------------------
D----5-7--75-----------------------------------
A--77-------7----------------------------------
E----------------------------------------------

guest
You may want to rate the tab now too:
select rating
Wanna post a correction for this tab? Suggest correction