Oops, an error
Loading. Please wait.

Killing In The Name Bass Tab

version 1
359,941 views 1 this week
59 commentsread comments
1 2 3 4 5
x 205
add to favorites
launch autoscroll
font size
0
reset
guitar tuner
×
Best way to learn
"Killing In The Name"
Autoscroll
slow
fast
+/-
esc
set tempo
stop
Author

I want this tab!

Sorry, this artist has told us we can not show this tab.

Help us change their mind!
Tell us why you want to learn this song or why it is important to you, and
we will share these directly with the artist or their representative.
Your words and your story can make a difference. It works!

To understand more on what is happening, please read this article:
Why Songs on Ultimate Guitar Are Licensed (time to read: 1 minute)

comments
print report bad tab
59 comments total. Showing first comments.
0 reply
tabcrawler 10 Sep 04, 2004 08:00 PM

awesome tab, just learned it, rage is amazing, i gave it 5 stars and i dont see why its rated so low...

+7 reply
StevieGuy9 10 Mar 31, 2006 07:35 AM

It's a great tab, but it deserves a 4-star. A few things are missing:

beginning of the song he goes:
G|-7--------7--------7--------7----|
D|-7--------7--------7--------7----|
A|-5--------5--------5--------5----|
D|---------------------------------|

he mutes
G|----------------------------|
D|------------3h4-------------|
A|----3h5---------5-----------|
D|-0------X-X--------0-2h3-2--|

He mutes and G string works, but I find it easier using the D
G|----------------------------------------------------|
D|------------9------------8-----------7--------------|
A|----3h5----------3h5---------3h5--------------------|
D|-0------X-X---0------X-X---0-----X-X---0-2h3-2h3-2--|

mutes again and way off
G|--------|-----------|-----------------------------|
D|--------|-----------|-----------------------------|
A|-5-5--5-|-5-5--X--5-|-5-5--X--5----5----X------3--|
D|--------|-----------|----------------------3-5----|

-1 reply
thisnamebecool 22 Oct 14, 2006 06:37 PM

actually i think the variation is
G -------------------
D ------------------5
A 5-5----5--5---7-8--
E -------------------

Its also played near end of the song where the guitar riff changes.

guest
You may want to rate the tab now too:
select rating
Wanna post a correction for this tab? Suggest correction