Oops, an error
Loading. Please wait.

No Shelter Bass

version 1
version 1

Whole song

Interactive

3,322 views 1 this week
1 commentread comment
1 2 3 4 5
1 last vote to show rating
add to favorites
launch autoscroll
font size
0
reset
guitar tuner
×
Best way to learn
"No Shelter"
Autoscroll
slow
fast
+/-
esc
set tempo
stop
Author
Rage Against The Machine - No Shelter

Tabbed By Stephen Pang (piequat@hotmail.com)

*Dropped D Tuning*

Intro/Verse/Chorus
G|------8/10-------8/10---|
D|-0-0--0-0---------------|
A|------------------------|
D|------------0-0--0-0----|

Pre-Chorus
G|-------------------------|
D|-------------------------|
A|-12-12-12-12-10-10-10-10-|
D|-------------------------|

After Chorus
G|-----------------------------------------------------------------|
D|-----------------------------3-3---------------------------------|
A|-5-5-5-5-3-3---------------------5-5-3-3-5-5-5-5-----------------|
D|-------------5-5-5-5-0-0-0-0---------------------3-3-3-3-5-5-5-5-|

Ending
G|---------------------------|
D|------------3--------------|
A|----3---------5-3-5--------|
D|-0----3--0-----------3--5--|
Suggest correction
Give kudos to tab author, rate the tab!
1 2 3 4 5
comments
print report bad tab
1 comment total.
+1 reply
piequat 803 Jan 22, 2003 07:00 PM

Intro/Verse/Chorus is now
G|-8/10-----8/10-----|
D|------0-0----------|
A|-------------------|
D|---------------0-0-|

and is played with a delay.

After Chorus is now
G|-----------------------------------------------------------------|
D|-----------------------------3-3---------------------------------|
A|-5-5-5-5-3-3---------------------5-5-3-3-5-5-5-5-----------------|
D|-------------3-3-3-3-0-0-0-0---------------------3-3-3-3-5-5-5-5-|

Just a subtle difference.

Ta. :)

guest
You may want to rate the tab now too:
select rating
Wanna post a correction for this tab? Suggest correction