Oops, an error
Loading. Please wait.

No Shelter bass

version 3
version 3

Whole song

Interactive

9,850 views 3 this week
7 commentsread comments
1 2 3 4 5
x 7
add to favorites
×
Save as Personal and add changes to this tab that will be seen only by you. Learn more ›
×
You can save this tab as Personal to edit and correct it or add notes. All changes will be seen only by you. Learn more »
launch autoscroll
font size
0
reset
guitar tuner
edit
Autoscroll
slow
fast
+/-
esc
set tempo
stop
-------------------------------------------------------------------------------
			  NO SHELTER - Rage Against The Machine
-------------------------------------------------------------------------------
Song: No Shelter
Artist: Rage Against The Machine
Album: Godzilla Soundtrack, bonus track on Eur/Aus copies of The Battle of Los Angeles
Bassist: Tim Commerford
Tabbed By : Ryan (Number 4) jetfuel888@gmail.com

Tuning: Drop D (DADG)

*Note* The main riff is a bit tricky to play, but basically do the slide on the G-string
the Eb to F while keeping a steady beat between the D string and the dropped D string.
use my middle finger on the G string to pluck the Eb (8th fret) and my index finger to 
the D string and my thumb to pluck the dropped D string.  It takes a little
but once you figure it out, you pretty much figure out the song.

Intro, Verse Riff (Riff starts at 0:28)
G|-8/10------8/10-----|
D|-0-0-------0-0------|
A|--------------------|
D|------0-0-------0-0-|x20 (8x for intro, 12x for verse)

Prechorus "...Thin line between entertainment and war" (1:06)
G|-----8888-|
D|-6666-----|
A|----------|
D|----------|

Chorus (same as intro, verse) "There'll be no shelter here" (1:07)
G|-8/10------8/10-----|
D|-0-0-------0-0------|
A|--------------------|
D|------0-0-------0-0-|x8

Bridge, bass solo (1:26)
G|----------------------------------|
D|-------3333----33-----------------|
A|-555533----5555--55335555---------|
D|-------------------------33335555-|

Verse 2 "Hospitals not profit full..." (1:31)
G|-8/10------8/10-----|
D|-0-0-------0-0------|
A|--------------------|
D|------0-0-------0-0-|x12

Prechorus "...Thin line between entertainment and war" (2:08)
G|-----8888-|
D|-6666-----|
A|----------|
D|----------|

Chorus "There'll be no shelter here" (2:10)
G|-8/10------8/10-----|
D|-0-0-------0-0------|
A|--------------------|
D|------0-0-------0-0-|x8

Bridge (16 5s 2:29)     (Same as bass solo) "American eyes, American eyes..."2:35
G|------------------|   G|----------------------------------|
D|------------------|   D|-------3333----33-----------------|
A|-5555555555555555-|   A|-555533----5555--55335555---------|
D|------------------|x2 D|-------------------------33335555-|x10

Outro "Just stare..." 3:22
G|-------------------------|
D|------3-----3------------|
A|-5--3----5----5-3-5------|
D|--------------------3--5-|x6

End on:
G|------|
D|------|
A|------|
D|-5~---|

| /  slide up
| \  slide down
| h  hammer-on
| p  pull-off
| ~  hold note
| +  harmonic
| x  mute note
===============================================================================
And There you have it.  If you have any questions/comments/concerns, comment or send me
email.  Please rate :)
Suggest correction
Creating personal tab
Creating personal tab
You can edit any tab online and save it as your Personal.

You can edit, replace or remove any tab part or add personal notes – all changes will be seen only by you.

Personal tabs can be accessed anytime from any device, even offline.
Learn more »
comments
print report bad tab
7 comments total. Showing first comments.
-1 reply
RATM_11 31 Mar 22, 2008 04:25 PM

awesome job. most people don't here the pre-chorus or call out the odd verse Tim plays, but you hit it like a hammer on a nail! definetly 100% right and 5 stars.

-1 reply
RATM_11 31 Mar 22, 2008 04:26 PM

o btw: its probably easier 2 play the verse if u simply tap the 8/10 instead of multi-tasking with ur strumming hand =)

-1 reply
HyperCannon 20 Sep 10, 2008 08:38 PM

Its bang, but when I listened to the song over and over it sounded more like this (If you have the "Live at the Grand Olympic Auditorium" its more noticeable)

G|-8/10-8/10-8/10-8/10-|
D|------0-0--0-0-------|
A|---------------------|
D|-0-0------------0-0--|

The rest is perfect though :)

guest
You may want to rate the tab now too:
select rating
Wanna post a correction for this tab? Suggest correction